Log in

One click and you are in

Login with Facebook Login with Google

Why sign up and log in

Guitar Tabs Explorer
The Meters bass tabs for Same old thing

Bass tabs

Same Old Thing - The Meters
-----------------------------------------------------------------------------

Tabbed By : Edward McLean

Part A
G|--------------------------------------------------------------------------|
D|--------------------------------------------------------------------------|
A|--7-5-7-5-7--5----------7-5-7-5-7--5--------------------------------------|
E|---------------765-------------------765----------------------------------|
B|-------------------5------------------------------------------------------|

Part B
G|--------------------------------------------------------------------------|
D|--7775---7p5----77775-7---------------------------------------------------|
A|-------7----0-------------------------------------------------------------|
E|--------------------------------------------------------------------------|
B|--------------------------------------------------------------------------|

Part C
G|--------------------------------------------------------------------------|
D|--------------------------------------------------------------------------|
A|--------11----11-12-12----12-11-9----------11-11---11-12-12----12-11-9----|
E|--9-9--9--9--9----------9--------12--9-9--9-------9----------9--------12--|
B|--------------------------------------------------------------------------|

G|--------------------------------------------------------------------------|
D|--------------------------------------------------------------------------|
A|--------11-----12-12------12----------------------------------------------|
E|--9-9--9--9--9----------9-------------------------------------------------|
B|--------------------------------------------------------------------------|

Part D
G|--------------------------------------------------------------------------|
D|----------------9--9--9---------------------------------------------------|
A|--99999--99999----9--9----------------------------------------------------|
E|-----------------------10--------------9-10-------------------------------|
B|---------------------------12----10-12------------------------------------|

Part E         |<   x 2   >|
G|--------------------------------------------------------------------------|
D|--------------------------------------------------------------------------|
A|--------------------------------------------------------------------------|
E|--10------7-8-9-x10----------7-8-9-x10--------077-088-x10-----------------|
B|------8--------------0-8-8--------------0-8-8-----------------------------|

             |<    x 2    >|
G|--------------------------------------------------------------------------|
D|--------------------------------------------------------------------------|
A|--------------------------------------------------------------------------|
E|--7-10-10---10-10-x10--789-10-10---10-10-x10------------------------------|
B|--------------------------------------------------------------------------|

Song Structure:
Part A x 4
Part B x 2
Part A x 2
Part C
Part D
Part E
Part D without ascending fill
"Same Old Thing" said x 11
Part B x 2
Part A until end

Almost there ...

Sign in to get your own page with links to favourite songs and more. You are just one click away...

Login with Facebook Login with Google