Log in

One click and you are in

Login with Facebook Login with Google

Why sign up and log in

Guitar Tabs Explorer
The Meters tabs for Just kissed my baby

Guitar tabs with lyrics

The Meters / Just Kissed My Baby
Tabbed by Paul Briggs


Note: this is actually a version the A chord diagramA augmentedA band
At the Local Pub Called Vdelli Play very
awsome If anyone lives in Perth Western
Australia check them out at the Indian Ocean
Hotel Scarbourgh on Firday Nights

x- dead Note
h- Hammer on
p- Pull off
+- wah pedal closed (down)
*- wah pedal Open (up)

uses a wah pedal

Just move the pedal with the beat and
you will get the sound


Intro/Verses
    +     +     *   +       *     *     *     *
e--------6-6---x---6-6--6-----------------------------
b--------6-6---x---6-6--6-----------------------------
g-----------------------------------------------------
d--5-x-x-----x---x------------------------------------
a-------------------------2-----3-----4-----5---------
e-------------------------0-x-x-1-x-x-2-x-x-3---------


    +  *  +     +         +      *     *     *     *
e--------------6-6---x---6-6--6-----------------------
b--------------6-6---x---6-6--6-----------------------
g-----------------------------------------------------
d--5-3-5-3-x-x-----x---x------------------------------
a-------------------------------2-----3-----4-----5---
e-------------------------------0-x-x-1-x-x-2-x-x-3---


Chorus
e-----------------------------------------------------
b-----------------------------------------------------
g-----------------------------------------------------
d----5-6-7------------------------------------------
a----------7---3-5-3-5-6-5-3---------------------
e----------------------------3-5---------------------


there you have it make up little variations to go
with it and play it to all your friends they will
love it
P.S sorry about not tabbing the solo and such

_________________________________________________________________

Almost there ...

Sign in to get your own page with links to favourite songs and more. You are just one click away...

Login with Facebook Login with Google