Cissy Strut by The Meters

Cissy Strut tab by The Meters

Guitar tabs

CISSY_STRUT.TAB
Cissy Strut by The Meters from the album The Meters.
Transcribed Transcribed by JimStewart@mail.utexas.edu
by edited by leo


Song format:
0. Say "Ahhhhhhh YA" with building volume
1. Play part One four times, then play part Two four times
2. Repeat Step One
3.- Play part three. That's the Chord Leo is playing, but find the rhythm
4. Play Part Two four times
5. Repeat Step 1.
6. The song fades out with part One being played twice.



Part One
e:--------------------|
B:--------------------|
G:--------------------|
D:10p8----------------|
A:------10------------|
E:---------13b(14)-10-|

e:-------------------------------------------|
B:--------------------11-11----10--10----|
G:--------------------10-10----10--10----|
D:--------------------12-12----10--10----|
A:-------------------------------------------|
E:8--10--8--10-(10)-----------------------|

Part Two
e:------------------------------------------------|
B:------------------------------------------------|
G:------------------------------------------------|
D:-------------------------10---10p-8----10--8--|
A:------------------------------------------------|
E:------------------------------------------------|


e:----------------------|
B:----------------------|
G:----------------------|
D:--10--8--10p8---------|
A:---------------10-----|
E:-------------------8--|

Part Three
e: 8
B: 8
G: 8
D: 7
A: 8
E: X





_________________________________________________________________
It's fast, it's easy and it's free. Get MSN Messenger today!
http://messenger.msn.co.uk

Find guitar tabs and chords

A B C D E F G H I J K L M N O P Q R S T U V W X Y Z #