Log in

One click and you are in

Login with Facebook Login with Google

Why sign up and log in

Guitar Tabs Explorer
Metallica tabs for Whiskey in the jar part 2

Guitar tabs

:---------------------------------------------------------------------------|
:---------------------------------------------------------------------------|
:---4-4-----------------------------5--5-5--5--5--------------------4-4-4---|
:5--5-5--5--5-5--5-2--2-2--2-2-2--2-5--5-5--5--5--5-5--5-5-5-5-5-5--5-5-5---|
:5--5-5--5--5-5--5-2--2-2--2-2-2--2-3--3-3--3--3--3-3--5-5-5-5-5-5--5-5-5---|
:3-----------------0--0-0--0-0-0--0-----------------------------------------|
:-----------------------------------------------------------------------|
:-----------------------------------------------------------------------|
:--4-4-4-4-4--4-4-4-3-------------------5-5-5-5-5-5-5-5------------4-4-4|
:5-5-5-5-5-5--5-5-5/4-2--2-2--2-2-2--2--5-5-5-5-5-5-5-5--5-5-5-5-5-5-5-5|
:5-5-5-5-5-5--5-5-5/4-2--2-2--2-2-2--2--3-3-3-3---3-3-3--5-5-5-5-5-5-5-5|
:3--------------------0--0-0--0-0-0--0----------------------------------|


                                         gt2
:---------------------------------------|/8~~~-(8)-8-8~~-7h8p7~~~-|
:---------------------------------------|-------------------------|
:-7-(7)-7-7-7-7-7-7--5-5-x-x-x--5-x-x-x-|-------------------------|
:-7-(7)-7-7-7-7-7-7--5-5-x-x-x--5-x-x-x-|-------------------------|
:-5-(5)-5-5-5-5-5-5--3-3-x-x-x--3-x-x-x-|-------------------------|
:---------------------------------------|-------------------------|


:|--------------------------------------------------------------------|
:|------7-8---7-------------------7-8---7-------------------8-10b-10b-|
:|-77-9-----9---7--9/12~~~~--77-9-----9---7--9/12b~~~~--7-9-----------|
:|--------------------------------------------------------------------|
:|--------------------------------------------------------------------|
:|--------------------------------------------------------------------|


:-----------------------------------------|
:8h10p8-8~~~~~----------------------------|
:------------------------7----------------|
:------------------5/7-9---5-7-5-7bp5~~~~-|
:-----------------------------------------|
:-----------------------------------------|

gt1
:---------------------------------------------------------------------------|
:---------------------------------------------------------------------------|
:4--4-4--4--4-4---------------------5--5-5--5--5-------4-4-4-4-4-4--4-4-4---|
:5--5-5--5--5-5--5-2--2-2--2-2-2--2-5--5-5--5--5--5-5--5-5-5-5-5-5--5-5-5---|
:5--5-5--5--5-5--5-2--2-2--2-2-2--2-3--3-3--3--3--3-3--5-5-5-5-5-5--5-5-5---|
:------------------0--0-0--0-0-0--0-----------------------------------------|

gt2
:-------------------------------------------|
:-------------------------------------------|
:-777h9-7-4--999h11-9-5-9-12-9\7--7h9-7-7\4-|
:-------------------------------------------|
:-------------------------------------------|
:-------------------------------------------|

gt1
:-----------------------------------------------------------------------|
:-----------------------------------------------------------------------|
:4-4-4-4-4-4----------------------------5-5-5-5-5-5-5-5--4-4-4-4-4-4-4--|
:5-5-5-5-5-5--5-5-5/4-2--2-2--2-2-2--2--5-5-5-5-5-5-5-5--5-5-5-5-5-5-5-5|
:5-5-5-5-5-5--5-5-5/4-2--2-2--2-2-2--2--3-3-3-3---3-3-3--5-5-5-5-5-5-5-5|
:---------------------0--0-0--0-0-0--0----------------------------------|

gt2
:--------------------------------|
:--------------------------------|
:-777h9-7-4--999h11-9-5-9-12-9\7-|
:--------------------------------|
:--------------------------------|
:--------------------------------|


                                         gt2
:---------------------------------------|/8~~~-(8)-8-8~~-7h8p7~~~-|
:---------------------------------------|-------------------------|
:-7-(7)-7-7-7-7-7-7--5-5-x-x-x--5-x-x-x-|-------------------------|
:-7-(7)-7-7-7-7-7-7--5-5-x-x-x--5-x-x-x-|-------------------------|
:-5-(5)-5-5-5-5-5-5--3-3-x-x-x--3-x-x-x-|-------------------------|
:---------------------------------------|-------------------------|


:|--------------------------|
:|------7-8---7-------------|
:|-77-9-----9---7--9/12~~~~-|
:|--------------------------|
:|--------------------------|
:|--------------------------|

Almost there ...

Sign in to get your own page with links to favourite songs and more. You are just one click away...

Login with Facebook Login with Google