Log in

One click and you are in

Login with Facebook Login with Google

Why sign up and log in

Guitar Tabs Explorer
Metallica tabs for Whiskey in the jar part 1

Guitar tabs

WHISKEY IN THE JAR


METALLICA
ALBUM: GARAGE INC.


TRANSCRIBED BY RUDY GUZMAN


E-MAIL: GUZMAN_84@HOTMAIL.COM


gt1
d-------------------------------------------------------------|
A-------------------------------------------------------------|
F----3-------------------------4-4--4-4--4--------------------|
C--5-4--2-2-2-2-----2-2-2-2-5--5-5--5-5--5-5\4--2-2--2-2--2-2-|
G--5-4--2-2-2-2--2--2-2-2-2-5--5-5--5-5--5-5\4--2-2--2-2--2-2-|
D-------0-0-0-0--0--0-0-0-0---------------------0-0--0-0--0-0-|


gt2
:|------------------------------------------------------------------------------|
:|------7-8---7-------------------7-8---7-------------------7-8---7-------------|
:|-77-9-----9---7--9/12~~~~--77-9-----9---7--9/12b~~~~--77-9----9---7--9/12~~~~-|
:|------------------------------------------------------------------------------|
:|------------------------------------------------------------------------------|
:|------------------------------------------------------------------------------|


:--------------------------|
:--------------------------|
:-------7------------------|
:-5-7-9---5-7-5--7bp5~~~~--|
:--------------------------|
:--------------------------|

other option for gt2
:------------------------|-----------------------|-----------------------|
:-----5-7-8---7---5/8~~~~|---5-7-8---7---5/8b~~~-|----5-7-8---7---5/8~~~-|
:-7-7-------7---7--------|77-------7---7---------|7-7-------7---7--------|
:------------------------|-----------------------|-----------------------|
:------------------------|-----------------------|-----------------------|
:------------------------|-----------------------|-----------------------|

:--------------------------|
:--------------------------|
:-------7------------------|
:-5-7-9---5-7-5--7bp5~~~~--|
:--------------------------|
:--------------------------|


verse
:---------------------------------------------------------------------------|
:---------------------------------------------------------------------------|
:---4-4-----------------------------5--5-5--5--5-------4-4-4-4-4-4--4-4-4---|
:5--5-5--5--5-5--5-2--2-2--2-2-2--2-5--5-5--5--5--5-5--5-5-5-5-5-5--5-5-5---|
:5--5-5--5--5-5--5-2--2-2--2-2-2--2-3--3-3--3--3--3-3--5-5-5-5-5-5--5-5-5---|
:------------------0--0-0--0-0-0--0-----------------------------------------|


:-----------------------------------------------------------------------|
:-----------------------------------------------------------------------|
:4-4-4-4-4-4--4-4-4/3-------------------5-5-5-5-5-5-5-5--4-4-4-4-4-4-4-4|
:5-5-5-5-5-5--5-5-5/4-2--2-2--2-2-2--2--5-5-5-5-5-5-5-5--5-5-5-5-5-5-5-5|
:5-5-5-5-5-5--5-5-5/4-2--2-2--2-2-2--2--3-3-3-3---3-3-3--5-5-5-5-5-5-5-5|
:---------------------0--0-0--0-0-0--0----------------------------------|


verse                                                           -------
:|-----------------------------------------------------------------------------|
:|------7-8---7-------------------7-8---7-------------------8-10b-10-10--10-12-|
:|-77-9-----9---7--9/12~~~~--77-9-----9---7--9/12b~~~~--7-9--------------------|
:|-----------------------------------------------------------------------------|
:|-----------------------------------------------------------------------------|
:|-----------------------------------------------------------------------------|


:---------------------------------------------|
:8h10p8-(8)-8h10p8-(8)------------------------|
:----------------------------7----------------|
:----------------------5/7-9---5-7-5-7bp5~~~~-|
:---------------------------------------------|
:---------------------------------------------|

Other versions of Whiskey In The Jar Part 1

Whiskey in The Jar Part 2Tabs

Almost there ...

Sign in to get your own page with links to favourite songs and more. You are just one click away...

Login with Facebook Login with Google