Log in

One click and you are in

Login with Facebook Login with Google

Why sign up and log in

Guitar Tabs Explorer
Metallica tabs for Where the wild things are

Guitar tabs

Where the wild thing are - Metallica - Reload
Tabed By Andrew Reasoner (music-box@juno.com)

eb-------------------------------------  -------
Bb-------------------------------------  -------
Gb--4-4--4-4--4-----4--4-----3--3-----0  -------
Db--5-5--5-5----5-2------5-2------5-2--  -------
Ab-------------------------------------  -------
Eb-------------------------------------  -0-3~~0
   Guitar 1            Guitar 2
Gb--4-4-4-4------  --------------
Db--5-5-5-5-----9  --------------
Ab--------------7  -5-5-5-5-----2
Eb----------0-0--  -3-3-3-3-0-0-0


Gb-------------------4\1
Db--5-5-5-5-5-5-5-2--5\2
Ab--5-5-5-5-5-5-5-2-----
Eb--3-3-3-3-3-3-3p0-----

"Steal dreams ...

                   x2        x1
Gb--------------------       -------------------
Db--7-7--6-6----------       -7-7--6-6--4-4--5-5
Ab--5-5--4-4--8-8--5-5       -5-5--4-4--2-2--3-3
Eb------------6-6--3-3       -------------------

chorus

So wake up sleepy ....


Look at the Dynamic Metallica Bootleg Page at
                 http://pluto.njcc.com/~carlr441/skip.htm
Join the Until It sleep  Metallica  Ring at
                  http://pluto.njcc.com/~carlr441/until.htm
Look at my metallica site at  http://pluto.njcc.com/~carlr441/METAL2.HTM

Almost there ...

Sign in to get your own page with links to favourite songs and more. You are just one click away...

Login with Facebook Login with Google