Log in

One click and you are in

Login with Facebook Login with Google

Why sign up and log in

Guitar Tabs Explorer
Metallica tabs for Until it sleeps acoustic

Guitar tabs

Okay here it is an acoustic version of until it sleeps, same as the
electric version but with no solo in the interlude. I have tabbed
the bass intro and finish for an acoustic guitar, if it was a bass
then you would have to play it an octave up for it to sound right.

Bass Intro:
|----------------------------------|
|----------------------------------|
|----------------------------------|
|---0-5--7/8--7--0-5--7/8--1--5----|

Verse Riff:

     A chord diagramA minorAm

e|--------0---------------------------------0---------|
A chord diagramBB|-----------3-----1-----0------------------1---------|
A chord diagramG+G|-------------------------------2-----0----2---------|
A chord diagramD MajorD|-----2------------------------------------2---------|
A chord diagramA augmentedA|--0---------------------------------------0---------|
A chord diagramE MajorE|----------------------------------------------------|


Chorus

     A chord diagramA minorAm       A chord diagramG+G     A chord diagramFF
e|-0-0-0-0---3-3---1-1--------------------------------|
A chord diagramBB|-1-1-1-1---0-0---1-1--------------------------------|
A chord diagramG+G|-2-2-2-2---0-0---2-2--------------------------------|
A chord diagramD MajorD|-2-2-2-2---0-0---3-3--------------------------------| x4
A chord diagramA augmentedA|-0-0-0-0---2-2---3-3--------------------------------|
A chord diagramE MajorE|-----------3-3---1-1--------------------------------|

     A chord diagramA minorAm

A chord diagramE MajorE|--------0-----------------|--------------------------|
A chord diagramBB|-----------3-----1-----0--|--------------------------|
A chord diagramG+G|--------------------------|-----2-----0--------------|
A chord diagramD MajorD|-----2--------------------|--------------------------|
A chord diagramA augmentedA|--0-----------------------|-----------------------0--|
A chord diagramE MajorE|--------------------------|-----------------0--3-----|

          A chord diagramA minorAm                         A chord diagramG+G           A chord diagramFF
A chord diagramE MajorE|--------0-----------------|--------2-----------1-----|
A chord diagramBB|-----------3-----1--------|--------2-----------1-----|
A chord diagramG+G|--------------------------|--------0-----------2-----|
A chord diagramD MajorD|-----2--------------------|--------0-----------3-----|
A chord diagramA augmentedA|--------------------------|--------2-----------3-----|
A chord diagramE MajorE|-----------------------0--|--3-----3-----1-----1-----|

Back to verse:
     A chord diagramA minorAm

A chord diagramE MajorE|--0-----------------------|----------------------------|
A chord diagramBB|--1-----------------------|----------------------------|
A chord diagramG+G|--2-----------------------|----------------------------|
A chord diagramD MajorD|--2-----------------------|----------------------------|
A chord diagramA augmentedA|--0-----------------------|----------------------------|
A chord diagramE MajorE|--------------------------|----------------------------|

          So tell me why you've chosen me...

Interlude (where to solo would be in the electric versin)

|---0-------------------------------0--------------------------------|
|---1-------------------------------1--------------------------------|
|---2-------------------------------2--------------------------------|
|---2-------------------------------2--------------------------------|
|---0-------------------------------0--------------------------------|
|--------------------------------------------------------------------|


|----------------0---------------------0--------0-------0----------0-|
|-------------------3--1--0---------------3--1--1---------3--1--0--1-|
|------------------------------------------------------------------2-|
|----------------------------------2-------------------------------2-|
|--0--2--3-----------------------3--------------------2------------0-|
|---------------------------------------------------3----------------|

Bass Ending:
|----------------------------------|
|----------------------------------|
|----------------------------------|
|---0-5--7/8--7--0-5--2/3--1--5----|

Have Fun, Eddie :)

Other versions of Until It Sleeps Acoustic

Until it sleepsChords
Until it sleepsTabs
Until it sleeps (Ver. 2)Tabs

Almost there ...

Sign in to get your own page with links to favourite songs and more. You are just one click away...

Login with Facebook Login with Google