Log in

One click and you are in

Login with Facebook Login with Google

Why sign up and log in

Guitar Tabs Explorer
Metallica tabs for Tuesday s gone

Guitar tabs

Tuesday's Gone
album garage inc. & unplugged
tabbed by Luis Guillermo Espinosa Hernandez
e-mail: ktulu_2099_05@hotmail.com

this version is already 100% right,just listen the song
and play it, i divided each guitar of the song and its played
in a 120 bpm in 3/4.if you still having problems mail it to me

h = hammer
b = bend
p = pull off
r = realease bend
                                                                 PunisheR
Gtr. I


A chord diagramD#D#||--------------|--------------|---------------|---------------|
A chord diagramA#A#||--------------|--------------|---------------|---------------|
A chord diagramF#F#||--------------|--------------|--2------------|--2------------|
A chord diagramC#C#||--------------|--------------|--2------------|--2------------|
A chord diagramG#G#||--------------|--------------|--0------------|--0------------|
A chord diagramD#D#||--------------|--------------|---------------|---------------|


-----------------|-----------------|-----------------|-----------------|
-----------------|-----------------|-----------------|-----------------|
-----------------|-----------------|-----------------|-----------------|
--2------2--2----|--2------2--2----|--4------4--4----|--4------4--4----|
--2------2--2----|--2------2--2----|--4------4--4----|--4------4--4----|
--0------0--0----|--0------0--0----|--2------2--2----|--2------2--2----|


--2----2--2----2--|--3--2--2--2--0----|----------------|-----------------|
--3----3--3----3--|--3--3--3--3--3----|----------------|-----------------|
--2----2--2----2--|--2--2--2--2--2----|--2--------2----|--2----2----2----|
--0----0--0----0--|--0--0--0--0--0----|--2--------2----|--2----2----2----|
------------------|--0----------------|--0--------0----|--0----0----0----|
------------------|-------------------|----------------|-----------------|


-----------------|-----------------|-------0---------|-------0---------|
-----------------|-----------------|------------3----|------------3----|
-----------------|-----------------|-----------------|-----------------|
--2----2----2----|--2------2--2----|--0--------------|--0--------------|
--2----2----2----|--2------2--2----|-----------------|-----------------|
--0----0----0----|--0------0--0----|-----------------|-----------------|


-------0---------|---------------|---------------|---------------|
------------3----|---------------|---------------|---------------|
-----------------|---------------|--2------------|--2------------|
--0--------------|--0------------|--2------------|--2------------|
-----------------|---------------|--0------------|--0------------|
-----------------|---------------|---------------|---------------|


-----------------|-----------------|-----------------|-----------------|
-----------------|-----------------|-----------------|-----------------|
-----------------|-----------------|-----------------|-----------------|
--2------2--2----|--2------2--2----|--4------4--4----|--4------4--4----|
--2------2--2----|--2------2--2----|--4------4--4----|--4------4--4----|
--0------0--0----|--0------0--0----|--2------2--2----|--2------2--2----|


--2----2--2----2--|--3--2--2--2--0----|----------------|-----------------|
--3----3--3----3--|--3--3--3--3--3----|----------------|-----------------|
--2----2--2----2--|--2--2--2--2--2----|--2--------2----|--2----2----2----|
--0----0--0----0--|--0--0--0--0--0----|--2--------2----|--2----2----2----|
------------------|--0----------------|--0--------0----|--0----0----0----|
------------------|-------------------|----------------|-----------------|


-----------------|-----------------|-------0---------|-------0---------|
-----------------|-----------------|------------3----|------------3----|
-----------------|-----------------|-----------------|-----------------|
--2----2----2----|--2------2--2----|--0--------------|--0--------------|
--2----2----2----|--2------2--2----|-----------------|-----------------|
--0----0----0----|--0------0--0----|-----------------|-----------------|


-------0---------|---------------|---------------|---------------|
------------3----|---------------|---------------|---------------|
-----------------|---------------|--2------------|--2------------|
--0--------------|--0------------|--2------------|--2------------|
-----------------|---------------|--0------------|--0------------|
-----------------|---------------|---------------|---------------|


-----------------|-----------------|-----------------|-----------------|
-----------------|-----------------|-----------------|-----------------|
-----------------|-----------------|-----------------|-----------------|
--2------2--2----|--2------2--2----|--4------4--4----|--4------4--4----|
--2------2--2----|--2------2--2----|--4------4--4----|--4------4--4----|
--0------0--0----|--0------0--0----|--2------2--2----|--2------2--2----|


--2----2--2----2--|--3--2--2--2--0----|----------------|-----------------|
--3----3--3----3--|--3--3--3--3--3----|----------------|-----------------|
--2----2--2----2--|--2--2--2--2--2----|--2--------2----|--2----2----2----|
--0----0--0----0--|--0--0--0--0--0----|--2--------2----|--2----2----2----|
------------------|--0----------------|--0--------0----|--0----0----0----|
------------------|-------------------|----------------|-----------------|


-----------------|-----------------|-------0---------|-------0---------|
-----------------|-----------------|------------3----|------------3----|
-----------------|-----------------|-----------------|-----------------|
--2----2----2----|--2------2--2----|--0--------------|--0--------------|
--2----2----2----|--2------2--2----|-----------------|-----------------|
--0----0----0----|--0------0--0----|-----------------|-----------------|


-------0---------|---------------|---------------|---------------|
------------3----|---------------|---------------|---------------|
-----------------|---------------|--2------------|--2------------|
--0--------------|--0------------|--2------------|--2------------|
-----------------|---------------|--0------------|--0------------|
-----------------|---------------|---------------|---------------|


-----------------|-----------------|-----------------|-----------------|
-----------------|-----------------|-----------------|-----------------|
-----------------|-----------------|-----------------|-----------------|
--2------2--2----|--2------2--2----|--4------4--4----|--4------4--4----|
--2------2--2----|--2------2--2----|--4------4--4----|--4------4--4----|
--0------0--0----|--0------0--0----|--2------2--2----|--2------2--2----|


--2----2--2----2--|--3--2--2--2--0----|----------------|-----------------|
--3----3--3----3--|--3--3--3--3--3----|----------------|-----------------|
--2----2--2----2--|--2--2--2--2--2----|--2--------2----|--2----2----2----|
--0----0--0----0--|--0--0--0--0--0----|--2--------2----|--2----2----2----|
------------------|--0----------------|--0--------0----|--0----0----0----|
------------------|-------------------|----------------|-----------------|


-----------------|-----------------|-------0---------|-------0---------|
-----------------|-----------------|------------3----|------------3----|
-----------------|-----------------|-----------------|-----------------|
--2----2----2----|--2------2--2----|--0--------------|--0--------------|
--2----2----2----|--2------2--2----|-----------------|-----------------|
--0----0----0----|--0------0--0----|-----------------|-----------------|


-------0---------|---------------|----------------|----------------|
------------3----|---------------|----------------|----------------|
-----------------|---------------|--2--------2----|--2--------2----|
--0--------------|--0------------|--2--------2----|--2--------2----|
-----------------|---------------|--0--------0----|--0--------0----|
-----------------|---------------|----------------|----------------|


--3--------3----|--3--------3----|--2--------2----|--2--------2----|
--3--------3----|--3--------3----|--3--------3----|--3--------3----|
--0--------0----|--0--------0----|--2--------2----|--2--------2----|
--0--------0----|--0--------0----|--0--------0----|--0--------0----|
--2--------2----|--2--------2----|----------------|----------------|
--3--------3----|--3--------3----|----------------|----------------|


--3--2----2----2--|--2----2----2----|----------------|----------------|
--3--3----3----3--|--3----3----3----|----------------|----------------|
--2--2----2----2--|--2----2----2----|--2--------2----|--2--------2----|
--0--0----0----0--|--0----0----0----|--2--------2----|--2--------2----|
--0---------------|-----------------|--0--------0----|--0--------0----|
------------------|-----------------|----------------|----------------|


----------------|----------------|-------0---------|-------0---------|
----------------|----------------|------------3----|------------3----|
----------------|----------------|-----------------|-----------------|
--2--------2----|--2--------2----|--0--------------|--0--------------|
--2--------2----|--2--------2----|-----------------|-----------------|
--0--------0----|--0--------0----|-----------------|-----------------|


-------0---------|---------------|---------------|---------------|
------------3----|---------------|---------------|---------------|
-----------------|---------------|--2------------|--2------------|
--0--------------|--0------------|--2------------|--2------------|
-----------------|---------------|--0------------|--0------------|
-----------------|---------------|---------------|---------------|


-----------------|-----------------|-----------------|-----------------|
-----------------|-----------------|-----------------|-----------------|
-----------------|-----------------|-----------------|-----------------|
--2------2--2----|--2------2--2----|--4------4--4----|--4------4--4----|
--2------2--2----|--2------2--2----|--4------4--4----|--4------4--4----|
--0------0--0----|--0------0--0----|--2------2--2----|--2------2--2----|


--2----2--2----2--|--3--2--2--2--0----|----------------|-----------------|
--3----3--3----3--|--3--3--3--3--3----|----------------|-----------------|
--2----2--2----2--|--2--2--2--2--2----|--2--------2----|--2----2----2----|
--0----0--0----0--|--0--0--0--0--0----|--2--------2----|--2----2----2----|
------------------|--0----------------|--0--------0----|--0----0----0----|
------------------|-------------------|----------------|-----------------|


-----------------|-----------------|-------0---------|-------0---------|
-----------------|-----------------|------------3----|------------3----|
-----------------|-----------------|-----------------|-----------------|
--2----2----2----|--2------2--2----|--0--------------|--0--------------|
--2----2----2----|--2------2--2----|-----------------|-----------------|
--0----0----0----|--0------0--0----|-----------------|-----------------|


-------0---------|---------------|---------------|---------------|
------------3----|---------------|---------------|---------------|
-----------------|---------------|--2------------|--2------------|
--0--------------|--0------------|--2------------|--2------------|
-----------------|---------------|--0------------|--0------------|
-----------------|---------------|---------------|---------------|


-----------------|-----------------|-----------------|-----------------|
-----------------|-----------------|-----------------|-----------------|
-----------------|-----------------|-----------------|-----------------|
--2------2--2----|--2------2--2----|--4------4--4----|--4------4--4----|
--2------2--2----|--2------2--2----|--4------4--4----|--4------4--4----|
--0------0--0----|--0------0--0----|--2------2--2----|--2------2--2----|


--2----2--2----2--|--3--2--2--2--0----|----------------|-----------------|
--3----3--3----3--|--3--3--3--3--3----|----------------|-----------------|
--2----2--2----2--|--2--2--2--2--2----|--2--------2----|--2----2----2----|
--0----0--0----0--|--0--0--0--0--0----|--2--------2----|--2----2----2----|
------------------|--0----------------|--0--------0----|--0----0----0----|
------------------|-------------------|----------------|-----------------|


-----------------|-----------------|-------0---------|-------0---------|
-----------------|-----------------|------------3----|------------3----|
-----------------|-----------------|-----------------|-----------------|
--2----2----2----|--2------2--2----|--0--------------|--0--------------|
--2----2----2----|--2------2--2----|-----------------|-----------------|
--0----0----0----|--0------0--0----|-----------------|-----------------|


-------0---------|---------------|---------------|---------------|
------------3----|---------------|---------------|---------------|
-----------------|---------------|--2------------|--2------------|
--0--------------|--0------------|--2------------|--2------------|
-----------------|---------------|--0------------|--0------------|
-----------------|---------------|---------------|---------------|


-----------------|-----------------|-----------------|-----------------|
-----------------|-----------------|-----------------|-----------------|
-----------------|-----------------|-----------------|-----------------|
--2------2--2----|--2------2--2----|--4------4--4----|--4------4--4----|
--2------2--2----|--2------2--2----|--4------4--4----|--4------4--4----|
--0------0--0----|--0------0--0----|--2------2--2----|--2------2--2----|


--2----2--2----2--|--3--2--2--2--0----|----------------|-----------------|
--3----3--3----3--|--3--3--3--3--3----|----------------|-----------------|
--2----2--2----2--|--2--2--2--2--2----|--2--------2----|--2----2----2----|
--0----0--0----0--|--0--0--0--0--0----|--2--------2----|--2----2----2----|
------------------|--0----------------|--0--------0----|--0----0----0----|
------------------|-------------------|----------------|-----------------|


-----------------|-----------------|-------0---------|-------0---------|
-----------------|-----------------|------------3----|------------3----|
-----------------|-----------------|-----------------|-----------------|
--2----2----2----|--2------2--2----|--0--------------|--0--------------|
--2----2----2----|--2------2--2----|-----------------|-----------------|
--0----0----0----|--0------0--0----|-----------------|-----------------|


-------0---------|---------------|----------------|----------------|
------------3----|---------------|----------------|----------------|
-----------------|---------------|--2--------2----|--2--------2----|
--0--------------|--0------------|--2--------2----|--2--------2----|
-----------------|---------------|--0--------0----|--0--------0----|
-----------------|---------------|----------------|----------------|


--3--------3----|--3--------3----|--2--------2----|--2--------2----|
--3--------3----|--3--------3----|--3--------3----|--3--------3----|
--0--------0----|--0--------0----|--2--------2----|--2--------2----|
--0--------0----|--0--------0----|--0--------0----|--0--------0----|
--2--------2----|--2--------2----|----------------|----------------|
--3--------3----|--3--------3----|----------------|----------------|


--3--2----2----2--|--2----2----2----|----------------|----------------|
--3--3----3----3--|--3----3----3----|----------------|----------------|
--2--2----2----2--|--2----2----2----|--2--------2----|--2--------2----|
--0--0----0----0--|--0----0----0----|--2--------2----|--2--------2----|
--0---------------|-----------------|--0--------0----|--0--------0----|
------------------|-----------------|----------------|----------------|


--3--------3----|--3--------3----|--2--------2----|--2--------2----|
--3--------3----|--3--------3----|--3--------3----|--3--------3----|
--0--------0----|--0--------0----|--2--------2----|--2--------2----|
--0--------0----|--0--------0----|--0--------0----|--0--------0----|
--2--------2----|--2--------2----|----------------|----------------|
--3--------3----|--3--------3----|----------------|----------------|


--3--2----2----2--|--2----2----2----|----------------|----------------|
--3--3----3----3--|--3----3----3----|----------------|----------------|
--2--2----2----2--|--2----2----2----|--2--------2----|--2--------2----|
--0--0----0----0--|--0----0----0----|--2--------2----|--2--------2----|
--0---------------|-----------------|--0--------0----|--0--------0----|
------------------|-----------------|----------------|----------------|


--3--------3----|--3--------3----|--2--------2----|--2--------2----|
--3--------3----|--3--------3----|--3--------3----|--3--------3----|
--0--------0----|--0--------0----|--2--------2----|--2--------2----|
--0--------0----|--0--------0----|--0--------0----|--0--------0----|
--2--------2----|--2--------2----|----------------|----------------|
--3--------3----|--3--------3----|----------------|----------------|


--3--2----2----2--|--2----2----2----|----------------|----------------|
--3--3----3----3--|--3----3----3----|----------------|----------------|
--2--2----2----2--|--2----2----2----|--2--------2----|--2--------2----|
--0--0----0----0--|--0----0----0----|--2--------2----|--2--------2----|
--0---------------|-----------------|--0--------0----|--0--------0----|
------------------|-----------------|----------------|----------------|


----------------|----------------|-------0---------|-------0---------|
----------------|----------------|------------3----|------------3----|
----------------|----------------|-----------------|-----------------|
--2--------2----|--2--------2----|--0--------------|--0--------------|
--2--------2----|--2--------2----|-----------------|-----------------|
--0--------0----|--0--------0----|-----------------|-----------------|


-------0---------|---------------||----------------|---------------|
------------3----|---------------||----------------|---------------|
-----------------|---------------||*--2------------|--2------------|
--0--------------|--0------------||*--2------------|--2------------|
-----------------|---------------||---0------------|--0------------|
-----------------|---------------||----------------|---------------|


-----------------|-----------------|-----------------|-----------------|
-----------------|-----------------|-----------------|-----------------|
-----------------|-----------------|-----------------|-----------------|
--2------2--2----|--2------2--2----|--4------4--4----|--4------4--4----|
--2------2--2----|--2------2--2----|--4------4--4----|--4------4--4----|
--0------0--0----|--0------0--0----|--2------2--2----|--2------2--2----|


--2----2--2----2--|--3--2--2--2--0----|----------------|-----------------|
--3----3--3----3--|--3--3--3--3--3----|----------------|-----------------|
--2----2--2----2--|--2--2--2--2--2----|--2--------2----|--2----2----2----|
--0----0--0----0--|--0--0--0--0--0----|--2--------2----|--2----2----2----|
------------------|--0----------------|--0--------0----|--0----0----0----|
------------------|-------------------|----------------|-----------------|


-----------------|-----------------|--2----2----2----|--2----2----2----|
-----------------|-----------------|--2----2----2----|--2----2----2----|
-----------------|-----------------|--2----2----2----|--2----2----2----|
--2----2----2----|--2------2--2----|--4----4----4----|--4----4----4----|
--2----2----2----|--2------2--2----|--4----4----4----|--4----4----4----|
--0----0----0----|--0------0--0----|--2----2----2----|--2----2----2----|


--3----3----3----|--3----3----3-----||--2----2----2----|--2----2----2----|
--3----3----3----|--3----3----3-----||--2----2----2----|--2----2----2----|
--4----4----4----|--4----4----4----*||--2----2----2----|--2----2----2----|
--5----5----5----|--5----5----5----*||--4----4----4----|--4----4----4----|
--5----5----5----|--5----5----5-----||--4----4----4----|--4----4----4----|
--3----3----3----|--3----3----3-----||--2----2----2----|--2----2----2----|


--3----3----3----|--3----3----3----|----------------|----------------|
--3----3----3----|--3----3----3----|----------------|----------------|
--4----4----4----|--4----4----4----|--2--------2----|--2--------2----|
--5----5----5----|--5----5----5----|--2--------2----|--2--------2----|
--5----5----5----|--5----5----5----|--0--------0----|--0--------0----|
--3----3----3----|--3----3----3----|----------------|----------------|


--3--------3----|--3--------3----|--2--------2----|--2--------2----|
--3--------3----|--3--------3----|--3--------3----|--3--------3----|
--0--------0----|--0--------0----|--2--------2----|--2--------2----|
--0--------0----|--0--------0----|--0--------0----|--0--------0----|
--2--------2----|--2--------2----|----------------|----------------|
--3--------3----|--3--------3----|----------------|----------------|


--3--2----2----2--|--2----2----2----|----------------|----------------|
--3--3----3----3--|--3----3----3----|----------------|----------------|
--2--2----2----2--|--2----2----2----|--2--------2----|--2--------2----|
--0--0----0----0--|--0----0----0----|--2--------2----|--2--------2----|
--0---------------|-----------------|--0--------0----|--0--------0----|
------------------|-----------------|----------------|----------------|


--3--------3----|--3--------3----|--2--------2----|--2--------2----|
--3--------3----|--3--------3----|--3--------3----|--3--------3----|
--0--------0----|--0--------0----|--2--------2----|--2--------2----|
--0--------0----|--0--------0----|--0--------0----|--0--------0----|
--2--------2----|--2--------2----|----------------|----------------|
--3--------3----|--3--------3----|----------------|----------------|


--3--2----2----2--|--2----2----2----|----------------|----------------|
--3--3----3----3--|--3----3----3----|----------------|----------------|
--2--2----2----2--|--2----2----2----|--2--------2----|--2--------2----|
--0--0----0----0--|--0----0----0----|--2--------2----|--2--------2----|
--0---------------|-----------------|--0--------0----|--0--------0----|
------------------|-----------------|----------------|----------------|


--3--------3----|--3--------3----|--2--------2----|--2--------2----|
--3--------3----|--3--------3----|--3--------3----|--3--------3----|
--0--------0----|--0--------0----|--2--------2----|--2--------2----|
--0--------0----|--0--------0----|--0--------0----|--0--------0----|
--2--------2----|--2--------2----|----------------|----------------|
--3--------3----|--3--------3----|----------------|----------------|


--3--2----2----2--|--2----2----2----|----------------|----------------|
--3--3----3----3--|--3----3----3----|----------------|----------------|
--2--2----2----2--|--2----2----2----|--2--------2----|--2--------2----|
--0--0----0----0--|--0----0----0----|--2--------2----|--2--------2----|
--0---------------|-----------------|--0--------0----|--0--------0----|
------------------|-----------------|----------------|----------------|


----------------|----------------|-------0---------|-------0---------|
----------------|----------------|------------3----|------------3----|
----------------|----------------|-----------------|-----------------|
--2--------2----|--2--------2----|--0--------------|--0--------------|
--2--------2----|--2--------2----|-----------------|-----------------|
--0--------0----|--0--------0----|-----------------|-----------------|


-------0---------|-----------------|---------------|---------------|
------------3----|-----------------|---------------|---------------|
-----------------|-----------------|--2------------|--2------------|
--0--------------|--2------2--2----|--2------------|--2------------|
-----------------|--2------2--2----|--0------------|--0------------|
-----------------|--0------0--0----|---------------|---------------|


-----------------|-----------------|-----------------|-----------------|
-----------------|-----------------|-----------------|-----------------|
-----------------|-----------------|-----------------|-----------------|
--2------2--2----|--2------2--2----|--4------4--4----|--4------4--4----|
--2------2--2----|--2------2--2----|--4------4--4----|--4------4--4----|
--0------0--0----|--0------0--0----|--2------2--2----|--2------2--2----|


--2----2--2----2--|--3--2--2--2--0----|----------------|-----------------|
--3----3--3----3--|--3--3--3--3--3----|----------------|-----------------|
--2----2--2----2--|--2--2--2--2--2----|--2--------2----|--2----2----2----|
--0----0--0----0--|--0--0--0--0--0----|--2--------2----|--2----2----2----|
------------------|--0----------------|--0--------0----|--0----0----0----|
------------------|-------------------|----------------|-----------------|


-----------------|-----------------|-------0---------|-------0---------|
-----------------|-----------------|------------3----|------------3----|
-----------------|-----------------|-----------------|-----------------|
--2----2----2----|--2------2--2----|--0--------------|--0--------------|
--2----2----2----|--2------2--2----|-----------------|-----------------|
--0----0----0----|--0------0--0----|-----------------|-----------------|


-------0---------|---------------|---------------|---------------|
------------3----|---------------|---------------|---------------|
-----------------|---------------|--2------------|--2------------|
--0--------------|--0------------|--2------------|--2------------|
-----------------|---------------|--0------------|--0------------|
-----------------|---------------|---------------|---------------|


-----------------|-----------------|-----------------|-----------------|
-----------------|-----------------|-----------------|-----------------|
-----------------|-----------------|-----------------|-----------------|
--2------2--2----|--2------2--2----|--4------4--4----|--4------4--4----|
--2------2--2----|--2------2--2----|--4------4--4----|--4------4--4----|
--0------0--0----|--0------0--0----|--2------2--2----|--2------2--2----|


--2----2--2----2--|--3--2--2--2--0----|----------------|-----------------|
--3----3--3----3--|--3--3--3--3--3----|----------------|-----------------|
--2----2--2----2--|--2--2--2--2--2----|--2--------2----|--2----2----2----|
--0----0--0----0--|--0--0--0--0--0----|--2--------2----|--2----2----2----|
------------------|--0----------------|--0--------0----|--0----0----0----|
------------------|-------------------|----------------|-----------------|


-----------------|-----------------|-------0---------|-------0---------|
-----------------|-----------------|------------3----|------------3----|
-----------------|-----------------|-----------------|-----------------|
--2----2----2----|--2------2--2----|--0--------------|--0--------------|
--2----2----2----|--2------2--2----|-----------------|-----------------|
--0----0----0----|--0------0--0----|-----------------|-----------------|


-------0---------|---------------|----------------|----------------|
------------3----|---------------|----------------|----------------|
-----------------|---------------|--2--------2----|--2--------2----|
--0--------------|--0------------|--2--------2----|--2--------2----|
-----------------|---------------|--0--------0----|--0--------0----|
-----------------|---------------|----------------|----------------|


--3--------3----|--3--------3----|--2--------2----|--2--------2----|
--3--------3----|--3--------3----|--3--------3----|--3--------3----|
--0--------0----|--0--------0----|--2--------2----|--2--------2----|
--0--------0----|--0--------0----|--0--------0----|--0--------0----|
--2--------2----|--2--------2----|----------------|----------------|
--3--------3----|--3--------3----|----------------|----------------|


--3--2----2----2--|--2----2----2----|----------------|----------------|
--3--3----3----3--|--3----3----3----|----------------|----------------|
--2--2----2----2--|--2----2----2----|--2--------2----|--2--------2----|
--0--0----0----0--|--0----0----0----|--2--------2----|--2--------2----|
--0---------------|-----------------|--0--------0----|--0--------0----|
------------------|-----------------|----------------|----------------|


--3--------3----|--3--------3----|--2--------2----|--2--------2----|
--3--------3----|--3--------3----|--3--------3----|--3--------3----|
--0--------0----|--0--------0----|--2--------2----|--2--------2----|
--0--------0----|--0--------0----|--0--------0----|--0--------0----|
--2--------2----|--2--------2----|----------------|----------------|
--3--------3----|--3--------3----|----------------|----------------|


--3--2----2----2--|--2----2----2----|----------------|----------------|
--3--3----3----3--|--3----3----3----|----------------|----------------|
--2--2----2----2--|--2----2----2----|--2--------2----|--2--------2----|
--0--0----0----0--|--0----0----0----|--2--------2----|--2--------2----|
--0---------------|-----------------|--0--------0----|--0--------0----|
------------------|-----------------|----------------|----------------|


--3--------3----|--3--------3----|--2--------2----|--2--------2----|
--3--------3----|--3--------3----|--3--------3----|--3--------3----|
--0--------0----|--0--------0----|--2--------2----|--2--------2----|
--0--------0----|--0--------0----|--0--------0----|--0--------0----|
--2--------2----|--2--------2----|----------------|----------------|
--3--------3----|--3--------3----|----------------|----------------|


--3--2----2----2--|--2----2----2----|----------------|----------------|
--3--3----3----3--|--3----3----3----|----------------|----------------|
--2--2----2----2--|--2----2----2----|--2--------2----|--2--------2----|
--0--0----0----0--|--0----0----0----|--2--------2----|--2--------2----|
--0---------------|-----------------|--0--------0----|--0--------0----|
------------------|-----------------|----------------|----------------|


----------------|----------------|-------0---------|-------0---------|
----------------|----------------|------------3----|------------3----|
----------------|----------------|-----------------|-----------------|
--2--------2----|--2--------2----|--0--------------|--0--------------|
--2--------2----|--2--------2----|-----------------|-----------------|
--0--------0----|--0--------0----|-----------------|-----------------|


-------0---------|---------------|-----------------|------------------|
------------3----|---------------|-----------------|------------------|
-----------------|---------------|--2----2----2----|--2----2--2--2----|
--0--------------|--0------------|--2----2----2----|--2----2--2--2----|
-----------------|---------------|--0----0----0----|--0----0--0--0----|
-----------------|---------------|-----------------|------------------|


-----------------|-----------------|--2----2----2----|--2----2----2----|
-----------------|-----------------|--3----3----3----|--3----3----3----|
-----------------|-----------------|--2----2----2----|--2----2----2----|
--2----2----2----|--2----2----2----|--0----0----0----|--0----0----0----|
--2----2----2----|--2----2----2----|-----------------|-----------------|
--0----0----0----|--0----0----0----|-----------------|-----------------|


--2----2----2----|--2----2----2----|-----------------|------------------|
--3----3----3----|--3----3----3----|-----------------|------------------|
--2----2----2----|--2----2----2----|--2----2----2----|--2----2--2--2----|
--0----0----0----|--0----0----0----|--2----2----2----|--2----2--2--2----|
-----------------|-----------------|--0----0----0----|--0----0--0--0----|
-----------------|-----------------|-----------------|------------------|


-----------------|-----------------|--2----2----2----|--2----2----2----|
-----------------|-----------------|--3----3----3----|--3----3----3----|
-----------------|-----------------|--2----2----2----|--2----2----2----|
--2----2----2----|--2----2----2----|--0----0----0----|--0----0----0----|
--2----2----2----|--2----2----2----|-----------------|-----------------|
--0----0----0----|--0----0----0----|-----------------|-----------------|


--2----2----2----|--2----2----2----|-----------------|------------------|
--3----3----3----|--3----3----3----|-----------------|------------------|
--2----2----2----|--2----2----2----|--2----2----2----|--2----2--2--2----|
--0----0----0----|--0----0----0----|--2----2----2----|--2----2--2--2----|
-----------------|-----------------|--0----0----0----|--0----0--0--0----|
-----------------|-----------------|-----------------|------------------|


-----------------|-----------------|--2----2----2----|--2----2----2----|
-----------------|-----------------|--3----3----3----|--3----3----3----|
-----------------|-----------------|--2----2----2----|--2----2----2----|
--2----2----2----|--2----2----2----|--0----0----0----|--0----0----0----|
--2----2----2----|--2----2----2----|-----------------|-----------------|
--0----0----0----|--0----0----0----|-----------------|-----------------|


--2----2----2----|--2----2----2----|-----------------|------------------|
--3----3----3----|--3----3----3----|-----------------|------------------|
--2----2----2----|--2----2----2----|--2----2----2----|--2----2--2--2----|
--0----0----0----|--0----0----0----|--2----2----2----|--2----2--2--2----|
-----------------|-----------------|--0----0----0----|--0----0--0--0----|
-----------------|-----------------|-----------------|------------------|


-----------------|-----------------|--2----2----2----|--2----2----2----|
-----------------|-----------------|--3----3----3----|--3----3----3----|
-----------------|-----------------|--2----2----2----|--2----2----2----|
--2----2----2----|--2----2----2----|--0----0----0----|--0----0----0----|
--2----2----2----|--2----2----2----|-----------------|-----------------|
--0----0----0----|--0----0----0----|-----------------|-----------------|


--2----2----2----|--2----2----2----|-----------------|------------------|
--3----3----3----|--3----3----3----|-----------------|------------------|
--2----2----2----|--2----2----2----|--2----2----2----|--2----2--2--2----|
--0----0----0----|--0----0----0----|--2----2----2----|--2----2--2--2----|
-----------------|-----------------|--0----0----0----|--0----0--0--0----|
-----------------|-----------------|-----------------|------------------|


-----------------|-----------------|--2----2----2----|--2----2----2----|
-----------------|-----------------|--3----3----3----|--3----3----3----|
-----------------|-----------------|--2----2----2----|--2----2----2----|
--2----2----2----|--2----2----2----|--0----0----0----|--0----0----0----|
--2----2----2----|--2----2----2----|-----------------|-----------------|
--0----0----0----|--0----0----0----|-----------------|-----------------|


--2----2----2----|--2----2----2----|-----------------|------------------|
--3----3----3----|--3----3----3----|-----------------|------------------|
--2----2----2----|--2----2----2----|--2----2----2----|--2----2--2--2----|
--0----0----0----|--0----0----0----|--2----2----2----|--2----2--2--2----|
-----------------|-----------------|--0----0----0----|--0----0--0--0----|
-----------------|-----------------|-----------------|------------------|


-----------------|-----------------|--2----2----2----|--2----2----2----|
-----------------|-----------------|--3----3----3----|--3----3----3----|
-----------------|-----------------|--2----2----2----|--2----2----2----|
--2----2----2----|--2----2----2----|--0----0----0----|--0----0----0----|
--2----2----2----|--2----2----2----|-----------------|-----------------|
--0----0----0----|--0----0----0----|-----------------|-----------------|


--2----2----2----|--2----2----2----|-----------------|------------------|
--3----3----3----|--3----3----3----|-----------------|------------------|
--2----2----2----|--2----2----2----|--2----2----2----|--2----2--2--2----|
--0----0----0----|--0----0----0----|--2----2----2----|--2----2--2--2----|
-----------------|-----------------|--0----0----0----|--0----0--0--0----|
-----------------|-----------------|-----------------|------------------|


-----------------|-----------------|--2----2----2----|--2----2----2----|
-----------------|-----------------|--3----3----3----|--3----3----3----|
-----------------|-----------------|--2----2----2----|--2----2----2----|
--2----2----2----|--2----2----2----|--0----0----0----|--0----0----0----|
--2----2----2----|--2----2----2----|-----------------|-----------------|
--0----0----0----|--0----0----0----|-----------------|-----------------|


--2----2----2----|--2----2----2----|-----------------|------------------|
--3----3----3----|--3----3----3----|-----------------|------------------|
--2----2----2----|--2----2----2----|--2----2----2----|--2----2--2--2----|
--0----0----0----|--0----0----0----|--2----2----2----|--2----2--2--2----|
-----------------|-----------------|--0----0----0----|--0----0--0--0----|
-----------------|-----------------|-----------------|------------------|


-----------------|-----------------|--2----2----2----|--2----2----2----|
-----------------|-----------------|--3----3----3----|--3----3----3----|
-----------------|-----------------|--2----2----2----|--2----2----2----|
--2----2----2----|--2----2----2----|--0----0----0----|--0----0----0----|
--2----2----2----|--2----2----2----|-----------------|-----------------|
--0----0----0----|--0----0----0----|-----------------|-----------------|


--2----2----2----|--2----2----2----|-----------------|------------------|
--3----3----3----|--3----3----3----|-----------------|------------------|
--2----2----2----|--2----2----2----|--2----2----2----|--2----2--2--2----|
--0----0----0----|--0----0----0----|--2----2----2----|--2----2--2--2----|
-----------------|-----------------|--0----0----0----|--0----0--0--0----|
-----------------|-----------------|-----------------|------------------|


-----------------|-----------------|--2----2----2----|--2----2----2----|
-----------------|-----------------|--3----3----3----|--3----3----3----|
-----------------|-----------------|--2----2----2----|--2----2----2----|
--2----2----2----|--2----2----2----|--0----0----0----|--0----0----0----|
--2----2----2----|--2----2----2----|-----------------|-----------------|
--0----0----0----|--0----0----0----|-----------------|-----------------|


--2----2----2----|--2----2----2----|-----------------|------------------|
--3----3----3----|--3----3----3----|-----------------|------------------|
--2----2----2----|--2----2----2----|--2----2----2----|--2----2--2--2----|
--0----0----0----|--0----0----0----|--2----2----2----|--2----2--2--2----|
-----------------|-----------------|--0----0----0----|--0----0--0--0----|
-----------------|-----------------|-----------------|------------------|


-----------------|-----------------|--2----2----2----|--2----2----2----|
-----------------|-----------------|--3----3----3----|--3----3----3----|
-----------------|-----------------|--2----2----2----|--2----2----2----|
--2----2----2----|--2----2----2----|--0----0----0----|--0----0----0----|
--2----2----2----|--2----2----2----|-----------------|-----------------|
--0----0----0----|--0----0----0----|-----------------|-----------------|


--2----2----2----|--2----2----2----|------|------|------|------|------|------|
--3----3----3----|--3----3----3----|------|------|------|------|------|------|
--2----2----2----|--2----2----2----|------|------|------|------|------|------|
--0----0----0----|--0----0----0----|------|------|------|------|------|------|
-----------------|-----------------|------|------|------|------|------|------|
-----------------|-----------------|------|------|------|------|------|------|


------|------|------|------|------|------|------|------|------|------|
------|------|------|------|------|------|------|------|------|------|
------|------|------|------|------|------|------|------|------|------|
------|------|------|------|------|------|------|------|------|------|
------|------|------|------|------|------|------|------|------|------|
------|------|------|------|------|------|------|------|------|------|


------------------|-------------------|------------------|------------------|
------------------|-------------------|------------------|------------------|
------------------|--2----------------|------------------|------------------|
------------------|-------------------|------------------|------------------|
------------------|-------------------|------------------|------------------|
------------------|-------------------|------------------|------------------|


------------------|------------------||
------------------|------------------||
------------------|------------------||
------------------|------------------||
------------------|------------------||
------------------|------------------||


Gtr. II



A chord diagramD#D#||--------------|--------------|----------------|------------------|
A chord diagramA#A#||--------------|--------------|--14------------|--14----14r-------|
A chord diagramF#F#||--------------|--------------|----------------|------------------|
A chord diagramC#C#||--------------|--------------|----------------|------------------|
A chord diagramG#G#||--------------|--------------|----------------|------------------|
A chord diagramD#D#||--------------|--------------|----------------|------------------|


----------------|----------------|------------------|----------------|
--12~-----------|------12r-------|--12--10~---------|------10r-------|
----------------|----------------|------------------|----------------|
----------------|----------------|------------------|----------------|
----------------|----------------|------------------|----------------|
----------------|----------------|------------------|----------------|


---------------|-------------------------|----------------|----------------|
--7~-----------|--7/-10--10/-12--12/-14--|--14~-----------|------14r-------|
---------------|-------------------------|----------------|----------------|
---------------|-------------------------|----------------|----------------|
---------------|-------------------------|----------------|----------------|
---------------|-------------------------|----------------|----------------|


------------------|--------------------|-------12----------|-------12----------|
--14--12~---------|------12r---12--10--|-------------15----|-------------15----|
------------------|--------------------|-------------------|-------------------|
------------------|--------------------|--0----------------|--0----------------|
------------------|--------------------|-------------------|-------------------|
------------------|--------------------|-------------------|-------------------|


-------12----------|--------------|--------------|--------------|--------------|
-------------15----|--------------|--------------|--------------|--------------|
-------------------|--------------|--------------|--------------|--------------|
--0----------------|--------------|--------------|--------------|--------------|
-------------------|--------------|--------------|--------------|--------------|
-------------------|--------------|--------------|--------------|--------------|


--------------|--------------|--------------|--------------|--------------|
--------------|--------------|--------------|--------------|--------------|
--------------|--------------|--------------|--------------|--------------|
--------------|--------------|--------------|--------------|--------------|
--------------|--------------|--------------|--------------|--------------|
--------------|--------------|--------------|--------------|--------------|


--------------|--------------|--------------|--------------|--------------|
--------------|--------------|--------------|--------------|--------------|
--------------|--------------|--------------|--------------|--------------|
--------------|--------------|--------------|--------------|--------------|
--------------|--------------|--------------|--------------|--------------|
--------------|--------------|--------------|--------------|--------------|


--------------|--------------|--------------|--------------|--------------|
--------------|--------------|--------------|--------------|--------------|
--------------|--------------|--------------|--------------|--------------|
--------------|--------------|--------------|--------------|--------------|
--------------|--------------|--------------|--------------|--------------|
--------------|--------------|--------------|--------------|--------------|


--------------|--------------|--------------|--------------|--------------|
--------------|--------------|--------------|--------------|--------------|
--------------|--------------|--------------|--------------|--------------|
--------------|--------------|--------------|--------------|--------------|
--------------|--------------|--------------|--------------|--------------|
--------------|--------------|--------------|--------------|--------------|


--------------|--------------|--------------|--------------|--------------|
--------------|--------------|--------------|--------------|--------------|
--------------|--------------|--------------|--------------|--------------|
--------------|--------------|--------------|--------------|--------------|
--------------|--------------|--------------|--------------|--------------|
--------------|--------------|--------------|--------------|--------------|


--------------|--------------|--------------|--------------|--------------|
--------------|--------------|--------------|--------------|--------------|
--------------|--------------|--------------|--------------|--------------|
--------------|--------------|--------------|--------------|--------------|
--------------|--------------|--------------|--------------|--------------|
--------------|--------------|--------------|--------------|--------------|


--------------|--------------|--------------|--------------|--------------|
--------------|--------------|--------------|--------------|--------------|
--------------|--------------|--------------|--------------|--------------|
--------------|--------------|--------------|--------------|--------------|
--------------|--------------|--------------|--------------|--------------|
--------------|--------------|--------------|--------------|--------------|


--------------|--------------|--------------|--------------|--------------|
--------------|--------------|--------------|--------------|--------------|
--------------|--------------|--------------|--------------|--------------|
--------------|--------------|--------------|--------------|--------------|
--------------|--------------|--------------|--------------|--------------|
--------------|--------------|--------------|--------------|--------------|


--------------|--------------|--------------|--------------|--------------|
--------------|--------------|--------------|--------------|--------------|
--------------|--------------|--------------|--------------|--------------|
--------------|--------------|--------------|--------------|--------------|
--------------|--------------|--------------|--------------|--------------|
--------------|--------------|--------------|--------------|--------------|


--------------|--------------|--------------|--------------|--------------|
--------------|--------------|--------------|--------------|--------------|
--------------|--------------|--------------|--------------|--------------|
--------------|--------------|--------------|--------------|--------------|
--------------|--------------|--------------|--------------|--------------|
--------------|--------------|--------------|--------------|--------------|


--------------|--------------|--------------|--------------|--------------|
--------------|--------------|--------------|--------------|--------------|
--------------|--------------|--------------|--------------|--------------|
--------------|--------------|--------------|--------------|--------------|
--------------|--------------|--------------|--------------|--------------|
--------------|--------------|--------------|--------------|--------------|


--------------|--------------|--------------|--------------|--------------|
--------------|--------------|--------------|--------------|--------------|
--------------|--------------|--------------|--------------|--------------|
--------------|--------------|--------------|--------------|--------------|
--------------|--------------|--------------|--------------|--------------|
--------------|--------------|--------------|--------------|--------------|


--------------|--------------|--------------|--------------|--------------|
--------------|--------------|--------------|--------------|--------------|
--------------|--------------|--------------|--------------|--------------|
--------------|--------------|--------------|--------------|--------------|
--------------|--------------|--------------|--------------|--------------|
--------------|--------------|--------------|--------------|--------------|


--------------|--------------|--------------|--------------|--------------|
--------------|--------------|--------------|--------------|--------------|
--------------|--------------|--------------|--------------|--------------|
--------------|--------------|--------------|--------------|--------------|
--------------|--------------|--------------|--------------|--------------|
--------------|--------------|--------------|--------------|--------------|


--------------|--------------|--------------|--------------|--------------|
--------------|--------------|--------------|--------------|--------------|
--------------|--------------|--------------|--------------|--------------|
--------------|--------------|--------------|--------------|--------------|
--------------|--------------|--------------|--------------|--------------|
--------------|--------------|--------------|--------------|--------------|


--------------|--------------|--------------|--------------|--------------|
--------------|--------------|--------------|--------------|--------------|
--------------|--------------|--------------|--------------|--------------|
--------------|--------------|--------------|--------------|--------------|
--------------|--------------|--------------|--------------|--------------|
--------------|--------------|--------------|--------------|--------------|


--------------|--------------|--------------|--------------|--------------|
--------------|--------------|--------------|--------------|--------------|
--------------|--------------|--------------|--------------|--------------|
--------------|--------------|--------------|--------------|--------------|
--------------|--------------|--------------|--------------|--------------|
--------------|--------------|--------------|--------------|--------------|


--------------|--------------|--------------|--------------|--------------|
--------------|--------------|--------------|--------------|--------------|
--------------|--------------|--------------|--------------|--------------|
--------------|--------------|--------------|--------------|--------------|
--------------|--------------|--------------|--------------|--------------|
--------------|--------------|--------------|--------------|--------------|


--------------|--------------|--------------|--------------|--------------|
--------------|--------------|--------------|--------------|--------------|
--------------|--------------|--------------|--------------|--------------|
--------------|--------------|--------------|--------------|--------------|
--------------|--------------|--------------|--------------|--------------|
--------------|--------------|--------------|--------------|--------------|


--------------|--------------|--------------|--------------|--------------|
--------------|--------------|--------------|--------------|--------------|
--------------|--------------|--------------|--------------|--------------|
--------------|--------------|--------------|--------------|--------------|
--------------|--------------|--------------|--------------|--------------|
--------------|--------------|--------------|--------------|--------------|


--------------|--------------|--------------|--------------|--------------|
--------------|--------------|--------------|--------------|--------------|
--------------|--------------|--------------|--------------|--------------|
--------------|--------------|--------------|--------------|--------------|
--------------|--------------|--------------|--------------|--------------|
--------------|--------------|--------------|--------------|--------------|


--------------|--------------|--------------|--------------|--------------|
--------------|--------------|--------------|--------------|--------------|
--------------|--------------|--------------|--------------|--------------|
--------------|--------------|--------------|--------------|--------------|
--------------|--------------|--------------|--------------|--------------|
--------------|--------------|--------------|--------------|--------------|


--------------|--------------|--------------|--------------|--------------|
--------------|--------------|--------------|--------------|--------------|
--------------|--------------|--------------|--------------|--------------|
--------------|--------------|--------------|--------------|--------------|
--------------|--------------|--------------|--------------|--------------|
--------------|--------------|--------------|--------------|--------------|


--------------|--------------|--------------|--------------|--------------|
--------------|--------------|--------------|--------------|--------------|
--------------|--------------|--------------|--------------|--------------|
--------------|--------------|--------------|--------------|--------------|
--------------|--------------|--------------|--------------|--------------|
--------------|--------------|--------------|--------------|--------------|


--------------|--------------|--------------|--------------|--------------|
--------------|--------------|--------------|--------------|--------------|
--------------|--------------|--------------|--------------|--------------|
--------------|--------------|--------------|--------------|--------------|
--------------|--------------|--------------|--------------|--------------|
--------------|--------------|--------------|--------------|--------------|


--------------|--------------|--------------|--------------|--------------|
--------------|--------------|--------------|--------------|--------------|
--------------|--------------|--------------|--------------|--------------|
--------------|--------------|--------------|--------------|--------------|
--------------|--------------|--------------|--------------|--------------|
--------------|--------------|--------------|--------------|--------------|


--------------|--------------|--------------|--------------|--------------|
--------------|--------------|--------------|--------------|--------------|
--------------|--------------|--------------|--------------|--------------|
--------------|--------------|--------------|--------------|--------------|
--------------|--------------|--------------|--------------|--------------|
--------------|--------------|--------------|--------------|--------------|


--------------|--------------|--------------|--------------|--------------|
--------------|--------------|--------------|--------------|--------------|
--------------|--------------|--------------|--------------|--------------|
--------------|--------------|--------------|--------------|--------------|
--------------|--------------|--------------|--------------|--------------|
--------------|--------------|--------------|--------------|--------------|


--------------||---------------|--------------|--------------|--------------|
--------------||---------------|--------------|--------------|--------------|
--------------||*--------------|--------------|--------------|--------------|
--------------||*--------------|--------------|--------------|--------------|
--------------||---------------|--------------|--------------|--------------|
--------------||---------------|--------------|--------------|--------------|


--------------|--------------|--------------|--------------|--------------|
--------------|--------------|--------------|--------------|--------------|
--------------|--------------|--------------|--------------|--------------|
--------------|--------------|--------------|--------------|--------------|
--------------|--------------|--------------|--------------|--------------|
--------------|--------------|--------------|--------------|--------------|


--------------|--------------|--------------|--------------|--------------|
--------------|--------------|--------------|--------------|--------------|
--------------|--------------|--------------|--------------|--------------|
--------------|--------------|--------------|--------------|--------------|
--------------|--------------|--------------|--------------|--------------|
--------------|--------------|--------------|--------------|--------------|


--------------|---------------||--2----2----2----|--2----2----2----|
--------------|---------------||--2----2----2----|--2----2----2----|
--------------|--------------*||--2----2----2----|--2----2----2----|
--------------|--------------*||--4----4----4----|--4----4----4----|
--------------|---------------||--4----4----4----|--4----4----4----|
--------------|---------------||--2----2----2----|--2----2----2----|


--3----3----3----|--3----3----3----|--------------|--------------|
--3----3----3----|--3----3----3----|--------------|--------------|
--4----4----4----|--4----4----4----|--------------|--------------|
--5----5----5----|--5----5----5----|--------------|--------------|
--5----5----5----|--5----5----5----|--------------|--------------|
--3----3----3----|--3----3----3----|--------------|--------------|


--------------|--------------|--------------|--------------|--------------|
--------------|--------------|--------------|--------------|--------------|
--------------|--------------|--------------|--------------|--------------|
--------------|--------------|--------------|--------------|--------------|
--------------|--------------|--------------|--------------|--------------|
--------------|--------------|--------------|--------------|--------------|


--------------|--------------|--------------|--------------|--------------|
--------------|--------------|--------------|--------------|--------------|
--------------|--------------|--------------|--------------|--------------|
--------------|--------------|--------------|--------------|--------------|
--------------|--------------|--------------|--------------|--------------|
--------------|--------------|--------------|--------------|--------------|


--------------|--------------|--------------|--------------|--------------|
--------------|--------------|--------------|--------------|--------------|
--------------|--------------|--------------|--------------|--------------|
--------------|--------------|--------------|--------------|--------------|
--------------|--------------|--------------|--------------|--------------|
--------------|--------------|--------------|--------------|--------------|


--------------|--------------|--------------|--------------|--------------|
--------------|--------------|--------------|--------------|--------------|
--------------|--------------|--------------|--------------|--------------|
--------------|--------------|--------------|--------------|--------------|
--------------|--------------|--------------|--------------|--------------|
--------------|--------------|--------------|--------------|--------------|


--------------|--------------|--------------|--------------|--------------|
--------------|--------------|--------------|--------------|--------------|
--------------|--------------|--------------|--------------|--------------|
--------------|--------------|--------------|--------------|--------------|
--------------|--------------|--------------|--------------|--------------|
--------------|--------------|--------------|--------------|--------------|


--------------|--------------|--------------|--------------|--------------|
--------------|--------------|--------------|--------------|--------------|
--------------|--------------|--------------|--------------|--------------|
--------------|--------------|--------------|--------------|--------------|
--------------|--------------|--------------|--------------|--------------|
--------------|--------------|--------------|--------------|--------------|


--------------|--------------|--------------|--------------|--------------|
--------------|--------------|--------------|--------------|--------------|
--------------|--------------|--------------|--------------|--------------|
--------------|--------------|--------------|--------------|--------------|
--------------|--------------|--------------|--------------|--------------|
--------------|--------------|--------------|--------------|--------------|


--------------|--------------|--------------|--------------|--------------|
--------------|--------------|--------------|--------------|--------------|
--------------|--------------|--------------|--------------|--------------|
--------------|--------------|--------------|--------------|--------------|
--------------|--------------|--------------|--------------|--------------|
--------------|--------------|--------------|--------------|--------------|


--------------|--------------|--------------|--------------|--------------|
--------------|--------------|--------------|--------------|--------------|
--------------|--------------|--------------|--------------|--------------|
--------------|--------------|--------------|--------------|--------------|
--------------|--------------|--------------|--------------|--------------|
--------------|--------------|--------------|--------------|--------------|


--------------|--------------|--------------|--------------|--------------|
--------------|--------------|--------------|--------------|--------------|
--------------|--------------|--------------|--------------|--------------|
--------------|--------------|--------------|--------------|--------------|
--------------|--------------|--------------|--------------|--------------|
--------------|--------------|--------------|--------------|--------------|


--------------|--------------|--------------|--------------|--------------|
--------------|--------------|--------------|--------------|--------------|
--------------|--------------|--------------|--------------|--------------|
--------------|--------------|--------------|--------------|--------------|
--------------|--------------|--------------|--------------|--------------|
--------------|--------------|--------------|--------------|--------------|


--------------|--------------|--------------|--------------|--------------|
--------------|--------------|--------------|--------------|--------------|
--------------|--------------|--------------|--------------|--------------|
--------------|--------------|--------------|--------------|--------------|
--------------|--------------|--------------|--------------|--------------|
--------------|--------------|--------------|--------------|--------------|


--------------|--------------|--------------|--------------|--------------|
--------------|--------------|--------------|--------------|--------------|
--------------|--------------|--------------|--------------|--------------|
--------------|--------------|--------------|--------------|--------------|
--------------|--------------|--------------|--------------|--------------|
--------------|--------------|--------------|--------------|--------------|


--------------|--------------|--------------|--------------|--------------|
--------------|--------------|--------------|--------------|--------------|
--------------|--------------|--------------|--------------|--------------|
--------------|--------------|--------------|--------------|--------------|
--------------|--------------|--------------|--------------|--------------|
--------------|--------------|--------------|--------------|--------------|


--------------|--------------|--------------|--------------|--------------|
--------------|--------------|--------------|--------------|--------------|
--------------|--------------|--------------|--------------|--------------|
--------------|--------------|--------------|--------------|--------------|
--------------|--------------|--------------|--------------|--------------|
--------------|--------------|--------------|--------------|--------------|


--------------|--------------|--------------|--------------|--------------|
--------------|--------------|--------------|--------------|--------------|
--------------|--------------|--------------|--------------|--------------|
--------------|--------------|--------------|--------------|--------------|
--------------|--------------|--------------|--------------|--------------|
--------------|--------------|--------------|--------------|--------------|


--------------|--------------|--------------|--------------|--------------|
---------

Almost there ...

Sign in to get your own page with links to favourite songs and more. You are just one click away...

Login with Facebook Login with Google