Log in

One click and you are in

Login with Facebook Login with Google

Why sign up and log in

Guitar Tabs Explorer
Metallica bass tabs for To live is to die   middle section

To Live Is To Die Middle Section bass tab by Metallica

Metallica bass tabs for To live is to die   middle section

Bass tabs

these are the tabs for my video of the middle section of to live is to die by metallica.
you can't hear the bassline on the record, but i figured it out.

NOTE: This may not be 100% correct, but i think it fits to the song and that's just what
matters to me ;)
1.
E|---------------------------------------------------------------|
A|--12----12-12h14p12-10---10-10h12p10-7--7-7h10p7-8-----8-8h10p8|
D|------14-------------------------------------------------------|
G|----14-----------------12--------------9----------10-10--------|

2.
E|---------------------------------------------------------------|
A|----12--12--12h14p12-10--10----10--7-----7--7h10p7--8--8--8----|
D|----------------------------12-------9-9-------------10----10--|
G|------14--14-----------12-14----------------------------10-----|

repeat this 3 times (you can vary the order of the notes on the D and G
string, but always stay with the basic tone played on the A string)

every 4th time it is:
4.
E|------------------------------------------------------------------|
A|----12--12--12h14p12-10--10----10-------------------------------14|
D|----------------------------12-----14--14-14-14-10h14--14--14-12--|
G|------14--14-----------12-14-------------------------12--12-------|


order:
1 x 1
1 x 2
1 x 1
1 x 4

i hope this tab could help you!

this was done by metalnudel

Almost there ...

Sign in to get your own page with links to favourite songs and more. You are just one click away...

Login with Facebook Login with Google