Log in

One click and you are in

Login with Facebook Login with Google

Why sign up and log in

Guitar Tabs Explorer
Metallica bass tabs for The unnamed feeling

Bass tabs with lyrics

Album: St. Anger

Tabbed by Kristof Smits

Drop C Tuning
Riff 1: Guitar


Riff 2 (comes in at 00:20, play 6 times):
F---------------------------------------
C---------------------------------------
G---------------------------------------
C--0-0-3\2--0-0-3\2--0-0-3\2--0-0-3\2---


Riff 3 (play 6 times)
F-------------------
C-------------------
G-------------------
C--/8-0-0-7-0-0-0---


Riff 4 (play 4 times):
F---------------------
C---------------------
G---------------------
C--0-0-3\2--0-0-3\2---
"Been here before..."

Fill:
F------------
C------------
G------------
C--/8----7---

Riff 4 x2

Fill


Riff 5:
F-------------------------------------------------------------------
C-------------------------------------------------------------------
G-------------------------------------------------------------------
C--0-0---0-0---3\2-----0---0-0--3\2---0-0---0-0---3\2-----0---0-0---

Fill


Riff 5 w/Fill over Verse 1


Riff 4 x6

Fill


Riff 5

Fill


Riff 6 (listen to bass drum for timing):
F------------------------------------------------------------------------
C-------------------------------------3--------2--0------------------3---
G-----5---------5---3------------3-5----------------------------3-5------
C--0---------------------------------------------------------------------


Riff 4 x4 + Fill


Riff 4 x2 + Fill


Riff 5 w/Fill over Verse 2


Riff 4 x7 + Fill


Riff 5

Fill


Riff 6 over Chorus 2


Riff 7 (Heavy Chorus):
F-----------------------------------------------------------------------
C-----------------------------------------------------------------------
G--3--5-------5--5-5-5p3--3--------5-5-3-5--------------3-5--3-5--------
C--------0-0------------------0-0-----------0h2--2--2-------------0-0---

(continued)
F-----------------------------------------------------------------------
C-----------------------------------------------------------------------
G--3--5-------5--5-5-5p3--3--------5-5-3-5------------------------------
C--------0-0------------------0-0-----------0h2--2-2-2--2--2-2-2-2-2-2--

(continued)
F-------------------------------------------------------
C-------------------------------------------------------
G-------------------------------------------------------
C--3--3-3-3--3--3-3-3-3-3-3--5--5-5-5--5--5-5-5-5-5-5---


Riff 8 (play 4 times):
F------------------------------------
C------------------------------------
G------------------------------------
C--0-0--0-0---3\2---0--0-0---3\2-----


Bridge = Riff 8 x8
"Get the fuck out..."


Riff 9: Guitar
"I rage, I glaze, I hurt, I hate..."


Riff 10:
    3 times
F----------------------|---------|-------------------------------
C----------------------|---------|-------------------------------
G----------------------|---------|-------------------------------
C--/8--7---3p0-0--0-2--|--/8--7--|--0-8-0-7-0-0--0-8-0-7-0-0-0---

    2 times           4 times
F----------------------|---------|--------------|----------
C----------------------|---------|--------------|----------
G----------------------|---------|--------------|----------
C--/8--7---3p0-0--0-2--|--/8--7--|--3p0-0--0-2--|--/8--7---


Riff 4 x16 (w/variations)


Riff 7 (Heavy Chorus) x2 w/variations


Riff 6

Almost there ...

Sign in to get your own page with links to favourite songs and more. You are just one click away...

Login with Facebook Login with Google