GuitarTabsExplorer icon
GuitarTabsExplorer icon

Log in

Songbook

  • Log in to add and see bookmarks

Last visited songs

  • No songs visited yet...
The God That Failed by Metallica

The God That Failed tab by Metallica

Tabs

Intro:Bass

Guitar
1)
Gb--------4-4--------------
Db--5-5-2-----2--5-5-2~----
Ab-------------------------
Eb-------------------------
intro


2)
Gb--------------------------------------------------------------------------
Db------------9-9-------------9-----------7------------------------------9--
Ab--10-10-7-------7---10-10-7---7-10-10-7---7--10-10-7---5-5-7---10-10-7---7
Eb----------0-------0----------------------------------0-------0------------
riff
3)
Db--4h5p4-------------
Ab---------7-5-4-0----
Eb-----------------3-2
pm....................


4a)
Db--------------------------------------------------------------------------
Ab--3-2-2-2--3-2-2-2--3-2-2-5-2-3-2-2-2--3-2-2-2--3-2-2-2--3-2-2-5-2-3-2-3-3
Eb--1-0-0-0--1-0-0-0--1-0-0-3-0-1-0-0-0--1-0-0-0--1-0-0-0--1-0-0-3-0-1-0-1-1
  pm....  .....  .....  .......
Pride you took...                         ...from above

4b) continued
Db--------------------------------------------------------------------------
Ab--3-2-3-3--3-2-3-3--3-2-3-5-2-3-2-3-3--3-2-3-3--3-2-3-3--3-2-3-5-2-5-2-2-2
Eb--1-0-1-1--1-0-1-1--1-0-1-3-0-1-0-1-1--1-0-1-1--1-0-1-1--1-0-1-3-0-3-0-0-0
  pm....  .....  .....  .  ............  .....  .....  .  .....
It feeds...


5a)
Gb----------4--------------4------------------------------------------
Db---5-2--2---2--2--5-2--2---5--2--5------------------------------9--7
Ab------------------------------2--5----------9--------------9----9--7
Eb------------------------------0--3--10-7--7---7--7-10-7--7---7--7--5
I see the faith...

5b) continued
Gb----------------------------------------------------------------------------------------------
Db----------9--------------9----9--7------------------------------------------------------------5
Ab--10-7--7---7--7-10-7--7---7--9--5----------9--------------9-----------9------------9---------5
Eb------------------------------7-----10-7--7---7--7-10-7--7---7-10-7--7---7--7-10--7---7-------3
---------------------------
solo:

||-------------------|-----------------------------|
||-------------------|-----------------------------|
||-------------------|-----------------------------|
||-------------------|-----------------------------|
||--------7~---------|--7~-------6~----------------|
||-------------------|-----------------------------|


-----------------------------------------|-------------------------|
--------12-------------------------------|-------------------------|
-----------14-12-11-12-11-------11h12p11/|--7----7---7-7/9----9----|
--------------------------14-------------|---------9---------------|
-----------------------------------------|-------------------------|
-----------------------------------------|-------------------------|


--0-0-0-0-0-0-0-0-0-0--0--0--0--0--0--0--0--0--0-0-0-0-0-0-|
--5-5-5/7-7-7/8-8-8/10-10-10/12-12-1210-10-108-8-87-7-7/|
-----------------------------------------------------------|
-----------------------------------------------------------|
-----------------------------------------------------------|
-----------------------------------------------------------|


--0-0-0-0-0-0-0-0-0-0-0-0-0-0-0-0-0-0-0-0-0-0--0--0--|
--8-8-87-7-75-5-5-4-4-4/5-5-5/7-7-7/8-8-8/10-10-10/|
-----------------------------------------------------|
-----------------------------------------------------|
-----------------------------------------------------|
-----------------------------------------------------|


--12-12-12-12-12-12-12-12-1/-12-12-12-12-12-12-12-12-----|
--12-12-12-12-12-12-12-12-1/-12-12-12-12-12-12-12-12-----|
----------------------------------------------------------|
--------------------------------------------------------7-|
----------------------------------------------------------|
----------------------------------------------------------|


------------------------------------------|
------------------------------------15~---|
-----12-14-14r-12----14r12-14r12----14b---|
--14--------------14-------------14-------|
------------------------------------------|
------------------------------------------|


----------------------------------------------|
----------------------------------------------|
--9/11/12/14/16-1412/16-x-x-14-x-x-12-11-9--|
----------------------------------------------|
--7/9/-10/12/14-1210/14-x-x-12-x-x-10-9--7--|
----------------------------------------------|


       A.H
--------------------------------------14h15p14----14-15-17-|
-----------------14h15p14----14-15-17----------17----------|
--9--7-6---6-7-6----------16-------------------------------|
---------9-------------------------------------------------|
-----------------------------------------------------------|
-----------------------------------------------------------|


--19--19-19-19-19-19---19-19-19-19--19-19-19-19-19--19-19-19-19-|
----------------------------------------------------------------|
----------------------------------------------------------------|
----------------------------------------------------------------|
----------------------------------------------------------------|
----------------------------------------------------------------|


--19-19p17p15-19--19p17p15-19---19p17p15----15h17-19p17p15h17p15----15h17-19-|
-----------------------------------------17----------------------17----------|
-----------------------------------------------------------------------------|
-----------------------------------------------------------------------------|
-----------------------------------------------------------------------------|
-----------------------------------------------------------------------------|


--19p17p15-----19p17p15-----19p17p15-----19p17p15----15-|
-----------17-----------17-----------17-----------17----|
--------------------------------------------------------|
--------------------------------------------------------|
--------------------------------------------------------|
--------------------------------------------------------|


--19p17p1514-17p15-1412-15p14p1210-14p12p109-12p10p97-10p9p7---7-----|
------------------------------------------------------------------8---8---|
--------------------------------------------------------------------------|
--------------------------------------------------------------------------|
--------------------------------------------------------------------------|
--------------------------------------------------------------------------|


------------------|------22b--22r-22r-22b--19-22-|
------------------|------------------------------|
------------------|------------------------------|
------------------|------------------------------|
------------------|------------------------------|
------------------|------------------------------|


--19h22p19----19-----19----19----19----19----19----19-|
-----------22----22b----22b---22b---22b---22b---22b---|
------------------------------------------------------|
------------------------------------------------------|
------------------------------------------------------|
------------------------------------------------------|



--22p19----19-22p19-22p19----19-22p19-22p19----19-22p19----19-22p19-22p19-19----
--------22----------------22----------------22----------22-------------------22-
--------------------------------------------------------------------------------
--------------------------------------------------------------------------------
--------------------------------------------------------------------------------
--------------------------------------------------------------------------------


-------------------------------------------------|
--22b-22p19--------------------------------------|
------------21-19----19-21b--21b-21b-21b-21b-21b-|
------------------21-----------------------------|
-------------------------------------------------|
-------------------------------------------------|


--------------------------------||
--------------------------------||
--21b-21b-21b-21r---19----------||
-----------------------21~------||
--------------------------------||
--------------------------------||


_______________________________________________________
Contribuição: ([email protected])

Other versions of The God That Failed

Alternative guitar chords and tabs for The God That Failed by Metallica

VersionType
The god that failed soloTabs

[ Privacy | About us ]

Welcome to the guitar community

Why join and log in?
- Get songbook with favourite songs
- Get custom made front page
- Submit chords and tabs
- Submit guitar-cover videos
- Get a lot of thumbs up for your work

Songbook

Last visited songs

Site
Home
Search
Community
Submit chords

Video

No video for this page. Check out how you can submit guitar-cover videos here

Search tabs and chords

Browse by artist

A B C D E F G H I J K L M N O P Q R S T U V W X Y Z #


Menu

Search

Video

Bookmark

Login