Log in

One click and you are in

Login with Facebook Login with Google

Why sign up and log in

Guitar Tabs Explorer
Metallica tabs for The god that failed solo

Guitar tabs

Band: Metallica

^= Bend
~= Shake
H= Hammer On
P= Pull Off
/= Slide Up
\= Slide Down
T= Tremolo Picking
X= Muffled String

Here's the Solo:
e---------------------------
B-----12--------------------
G-14~~---14-12-11-12-11-----
D----------------------14---
A---------------------------
E---------------------------

e---------------------------
B---------------------------
G-11h12p11\7---7---7-7-7/9\--
D---------------9-----------
A---------------------------
E---------------------------


e-0--0--0--0--0--0--0--0--0--0
B-5--7--8-10-12-10--8--7--8--7
G-----------------------------
D-----------------------------
A-----------------------------
E-----------------------------
						      T         T
e-0--0--0--0--0--0--10/12\1/12-
B-5--4--5--7--8-10--10/12\1/12-
G-----------------------------
D-----------------------------
A-----------------------------
E-----------------------------

e-----------------------------
B-----------------------------
G-----12-14-14^p12---14^p12----
D-7/14------------14-------14-
A-----------------------------
E-----------------------------

e-----------------------------
B----15^~~~-------------------
G-12-14^~~~--9/11/12/14/16\14\12
D-----------------------------
A------------7/9/-10/12/14\12\9
E-----------------------------

e----------------------------
B----------------------------
G-/16-X-X-14--X-X-12-11-9--9--
D----------------------------
A-/14-X-X-12--X-X-10--9-7-----
E----------------------------

e-----------------------------
B-------------14h15p14--14-15-
G--7-6----6-7---------16------
D------9----------------------
A-----------------------------
E-----------------------------

e-----14h15p14-----14-15-17---
B--17----------17-------------
G-----------------------------
D-----------------------------
A-----------------------------
E-----------------------------

e--19---19-19-19-19-19---19-19
B-----------------------------
G-----------------------------
D-----------------------------
A-----------------------------
E-----------------------------

e-19-19---19-19-19-19-19---19-
B-----------------------------
G-----------------------------
D-----------------------------
A-----------------------------
E-----------------------------

e-19-19-19--19-19p17p15-19--
B---------------------------
G---------------------------
D---------------------------
A---------------------------
E---------------------------

e--19p17p15---15h17-19p17p15h17
B----------17-----------------
G-----------------------------
D-----------------------------
A-----------------------------
E-----------------------------

e----15h17-19-19p17p15-----
B-17------------------17---
G--------------------------
D--------------------------
A--------------------------
E--------------------------

e-19p17p15---19p17p15------
B---------17---------17---
G-------------------------
D--------------------------
A--------------------------
E--------------------------

e-19p17p15---15--19p17p15\14--
B---------17-----------------
G----------------------------
D----------------------------
A----------------------------
E----------------------------

e--17p15p14\12--15p14p12\10---
B----------------------------
G----------------------------
D----------------------------
A----------------------------
E----------------------------

e--14p12p10\9--12p10p9\7--7----
B----------------------8---8--
G-----------------------------
D-----------------------------
A-----------------------------
E-----------------------------

e-----------------------------
B-----------------------------
G-----------------------------
D-4h5p4----------4h5p4---------
A------7-5-4\2--------7-5-4\2--
E-------------5-3------------5

e----22^--22^22^-22~~-19-22--
B---------------------------
G---------------------------
D---------------------------
A---------------------------
E-3-------------------------

e-19h22p19--19-19-19-19-19-19-
B---------22-22-22^22^22^-22^22^
G-----------------------------
D-----------------------------
A-----------------------------
E-----------------------------

e-19--22p19--19-22p19-22p19----
B----------22--------------22-
G-----------------------------
D-----------------------------
A-----------------------------
E-----------------------------

e-19-22p19-22p19--19-22p19-----
B---------------22--------22--
G-----------------------------
D-----------------------------
A-----------------------------
E-----------------------------

e-19-22p19-22p19-19-----------
B------------------22-22^p19--
G-----------------------------
D-----------------------------
A-----------------------------
E-----------------------------

e-----------------------------
B-22^--22p19------------------
G-----------21-19--19-21^-21^-
D----------------21-----------
A-----------------------------
E-----------------------------

e-----------------------------
B-----------------------------
G-21^-21^-21^-21^-21^-21^-21^-21^
D-----------------------------
A-----------------------------
E-----------------------------

e-----------------------------
B-----------------------------
G--19-------------------------
D-----21~~~~~~~~~~~~~~~~~~~~~~
A-----------------------------
E-----------------------------

There it is.
Comments?
Email Me: ktulu54@hotmail.com

ⓘ Guitar tab for 'The God That Failed Solo' by Metallica, a thrash metal band formed in 1981 from Los Angeles, USA. Metallica is known for their angry metal music.

Other versions of The God That Failed Solo

The god that failedTabs

Almost there ...

Sign in to get your own page with links to favourite songs and more. You are just one click away...

Login with Facebook Login with Google