Log in

One click and you are in

Login with Facebook Login with Google

Why sign up and log in

Guitar Tabs Explorer
Metallica tabs for The cure

Guitar tabs

#---------------------------------------------------------------------------
---##

The Cure
(Hetfield, Ulrich)
Recorded By Metallica off of the Load album
Tabbed by kyleg@mail.goldengate.net
http://www.goldengate.net/~kyleg/guitar.htm

"The Cure"
------------------------------------------------------------------|
------------------------------------------------------------------|
------------------------------------------------------------------|
------------------------------------------------------------------|
-2-2----2------4-----4--2-2----2-----4----4---2----2------4----4--|
-0-0-3~-0--4-5-- 4-5----0-0-3~-0--4-5--4-5----0-3~-0---4-5--4-5---|

--------------------------------------------------------------|
--------------------------------------------------------------|
--------------------------------------------------------------|
-3-3-->-------------------------------------------------------|
-3-3-->-------------------------------------------------------|
-1-1-->-------------------------------------------------------|
<pm>  Keep strumming F#, gradually lidting palm off of bridge


--------------------------------------------------------------|
--------------------------------------------------------------|
--------------------------------------------------------------|
--------------------------------------------------------------|
--------------------------------------------7-6-5-------------|
--0-3-0-6-0-0-0-3-0-6-0-0-0-3-0-6-0-0-0-3-0-------7-6-5-------|
 <pm> all open string notes - (A chord diagramE MajorE)

-------------------------------------------------------------|
---7-7-7-6-6-7-----------------------------------------------|
---8-8-8-7-7-8-----------------------------------------------|
-------------------------------------------------------------|
-------------------------------------------------------------|
-------------------------------------------------------------|




Any comments, questions, corrections? send them my way at
kyleg@mail.goldengate.net

Almost there ...

Sign in to get your own page with links to favourite songs and more. You are just one click away...

Login with Facebook Login with Google