Log in

One click and you are in

Login with Facebook Login with Google

Why sign up and log in

Guitar Tabs Explorer
Metallica tabs for Temptation  from the movie

Guitar tabs with lyrics

This riff from the song 'Temptation' is from the movie: 'Some Kind Of Monster.'
It was one of the many songs which were not put on St. Anger. One of the rejects.
I think it is in drop c tuning but I have no idea. I'm just sitting at my
computer with my KH3, typing up tabs.


e-------------------------------------------------
b-------------------------------------------------
g-------------------------------------------------
d-0-0-0-3-5-5-5-3-6-6-6-5-0-0-0-3-----------------
a-0-0-0-3-5-5-5-3-6-6-6-5-0-0-0-3-----------------
E-0-0-0-3-5-5-5-3-6-6-6-5-0-0-0-3-----------------

That's it!
Here is another riff used in the movie, from another rejected song. It is
just after James had been calling Kirk through the microphone whilst Kirk
was playing it. This was the final version.

e-------------------------------------------------
b-------------------------------------------------
g-------------------------------------------------
d--------0-1-5------------------------------------
a-2-2-2--0-1-5--2-2-2--5-7-8----------------------
E-0-0-0------3--0-0-0--3-5-6----------------------

Well thats that! If anyone wants any pantera or metallica solos then...
I don't know, I have no E-mail address.

Almost there ...

Sign in to get your own page with links to favourite songs and more. You are just one click away...

Login with Facebook Login with Google