Log in

One click and you are in

Login with Facebook Login with Google

Why sign up and log in

Guitar Tabs Explorer
Metallica tabs for Stone dead forever

Guitar tabs

´´STONE DEAD FOREVER´´
ORIGINALLY BY MOTÖRHEAD
WRITTEN BY KILMISTER/CLARKE/TAYLOR
COVER BY METALLICA
ALBUM ´´GARAGE, INC´´
TABBED BY LUIS GUILLERMO ESPINOSA

TUNED 1/2 STEP DOWN
INTRO BASS (ARRANGE FOR GUITAR)
|----------------------------|
|----------------------------|
|O--------------------------O|
|0--------------------------O|
|----------------------------|
|-12--12--10--12--12--10-----|

|------------------------------------------------|
|------------------------------------------------|
|0---------------------------7--------9---------0|
|0-9-------7--------5--------5--------7---------0|
|--7-------5--------3----------------------------|
|------------------------------------------------|

        ´´YOU THINK YOU SEE ME,     IN THE GLASS...´´
|----------------------------------------------------|------------|
|----------------------------------------------------|------------|
|O--------------------------------------------------O|-----------O|
|O--9--9-----------------------9--9-----------------O|-9---5---4-O|
|---7--7-----------------------7--7------------------|-7---3---2--|
|----------------------------------------------------|------------|

´´YOUR TIME HAS COME TO OWN,                   YOUR FACE TURN TO STONE...´´
|--------------------------------------------------------------------------------|
|--------------------------------------------------------------------------------|
|O------------------------------------------------------------------------------O|
|O------------------------------------------------------------------------------O|
|---7--7--7--7--7--7--7-7-7--9-9-9-9-9-9-9-9-9-5-5-5-5-5-5-5--4-4-4-4-4-4--------|
|---5--5--5--5--5--5--5-5-5--7-7-7-7-7-7-7-7-7-3-3-3-3-3-3-3--2-2-2-2-2-2--------|

 ´´  STONE          DEAD             FOREVER´´
|--------------------------------------------------|
|--------------------------------------------------|
|O------------------------------------------------O|
|O---5-5-5-5-5-5--5---4-4-4--3-3-3---2------------O|
|----5-5-5-5-5-5--5---4-4-4--3-3-3---2-------------|
|----3-3-3-3-3-3--3---2-2-2--1-1-1---0-------------|

SO... YOU UNDERSTAND IT?

CORRECTIONS ,COMMENTS ,QUESTIONS? OR HATEMAILS? SEND IT TO:
KTULU_2099_05@HOTMAIL.COM
I´M GLAD TO READ YOUR FUCKING MAILS FUCKER
AND IF YOU HAVE THE COMPLETE TABS OF ´´SHORTEST STRAW´´,´´DYERS EVE´´,
´´STONE COLD CRAZY´´OR´´OVERKILL´´ SEND IT TOO MAN.

SO...THANX AND...

METAL UP YOUR ASS! YOU CRAZY FUCKERS!

SEE YA IN HELL!

Almost there ...

Sign in to get your own page with links to favourite songs and more. You are just one click away...

Login with Facebook Login with Google