Log in

One click and you are in

Login with Facebook Login with Google

Why sign up and log in

Guitar Tabs Explorer
Metallica tabs for St anger2

Guitar tabs

St.Anger
----------

1)     Intro-riff, half-acoustic
c---------------------------------
A---------------------------------
F---------------------------------
C---------------------------------
G----------------------------3-3-3
C-0-0-1-2-1-2-1-0-2-1-0-1-2-------
PM ........................       repeat 3 times
c--------------------
A--------------------
F--------------------
C--------------------
G--------------------
C-0-0-1-2-1-2-0-1-2--
PM ................

drums enter,guitar with distortion:

c---------------------------------
A---------------------------------
F---------------------------------
C---------------------------3-3-3-
G-0-0-1-2-1-2-1-0-2-1-0-1-2-3-3-3
C-0-0-1-2-1-2-1-0-2-1-0-1-2-------
PM ........................        repeat 3 times

c---------------------------------------------
A---------------------------------------------
F---------------------------------------------
C---------------------------------------3-3-3-
G-0-0-1-2-1-----------------------------3-3-3-
C-0-0-1-2-1-2-1-0-2-1-0-2-1-0-2-1-0-1-2-------
PM ........

c---------------------------------
A---------------------------------
F---------------------------------
C---------------------------3-3-3-
G-0-0-1-2-1-----------------3-3-3-
C-0-0-1-2-1-2-1-0-2-1-0-1-2-------
PM ........

c---------------------------------
A---------------------------------
F---------------------------------
C---------------------------3-3-3-
G-0-0-1-2-1-----------------3-3-3-
C-0-0-1-2-1-2-1-0-2-1-0-1-2-------
PM ........

c---------------------------------
A---------------------------------
F---------------------------------
C---------------------------3-3-3-
G-0-0-1-2-1-----------------3-3-3-
C-0-0-1-2-1-2-1-0-2-1-0-1-2-------
PM ........

c---------------------------------------------
A---------------------------------------------
F---------------------------------------------
C---------------------------------------3-3-3-
G-0-0-1-2-1-----------------------------3-3-3-
C-0-0-1-2-1-2-1-0-2-1-0-2-1-0-2-1-0-1-2-------
PM ....................................

   main riff, whole band:

c--------------------------------
A--------------------------------
F--------------------------------
C--------------------------3-3-3-
G--0-1-2-1-2-1-0-2-1-0-1-2-3-3-3-
C--0-1-2-1-2-1-0-2-1-0-1-2-------
PM .......................        repeat 8 times

c--------------------------
A--------------------------
F--------------------------
C--------------------------
G--------------------------
C--2-1-0-2-1-0-2-1-0-2-1-0-
PM .......................     verse starts....:)


******** M A chord diagramE MajorE T A chord diagramA augmentedA L L I A chord diagramC majorC A chord diagramA augmentedA * A chord diagramFF O R A chord diagramE MajorE V A chord diagramE MajorE R *****

*****tabs: morten.borosund@powerprint.no********
************************************************

Almost there ...

Sign in to get your own page with links to favourite songs and more. You are just one click away...

Login with Facebook Login with Google