Log in

One click and you are in

Login with Facebook Login with Google

Why sign up and log in

Guitar Tabs Explorer
Metallica tabs for St anger

Guitar tabs

Title: St. Anger
Album: St. Anger
 
* is palm mute.
 
This is Metallica's newest song.
It just came out yesterday so i had to listen to the radio.
 

Intro
E---------------------------------
B---------------------------------
G---------------------------------
D---------------------------------
A-------------------------1-1-1-1-
E-0-0-0-0-0-0-0-0-0-0-0-0---------
  * * * *   * *   * * * *
 

Bridge
E-------0-----1----------------
B-1-----------------3-----1--3-
G---0------0-----3-----0-------
D------------------------------
A------------------------------
E------------------------------
 

Chorus                                         Fifth time
E—88888888888888886666666644443333--Guitar
2--|--------------------------
B---------------------------------------------|--------------------------
G---------------------------------------------|--------------------------
D-1010101010101010-8-8-8-8-6-6-5-5------------|10-------------8----6--5--
A-1010101010101010-8-8-8-8-6-6-5-5--Guitar 1--|10-------------8----6--5--
E--8-8-8-8-8-8-8-8-6-6-6-6-4-4-3-3------------|-8----8-8--8-8-6----4--3--
                                                     * *  * *
 

Verse 1
E----------------------------------
B----------------------------------
G----------------------------------
D-10---------------8-------6---5---
A-10---------------8-------6---5---
E--8---------------6-------4---3---
 

Verse 2
E---------------------------
B---------------------------
G---------------------------
D-10------------------------
A-10------------------------
E--8----8-8--8-8--8-8--8-8--
* *  * *  * *  * *
 

Intro       x18

Bridge      x4

Chorus      x5

Verse 1     x8

Verse 2     x1

Intro       x6

Bridge      x4

Chorus      x4

Verse 1     x8

Verse 2     x1

Intro       x18

Verse 1     x8

Verse 2     x1

Intro       x1

Other versions of St Anger

St angerChords
St anger albumTabs
St anger1Tabs
St anger2Tabs

Almost there ...

Sign in to get your own page with links to favourite songs and more. You are just one click away...

Login with Facebook Login with Google