Log in

One click and you are in

Login with Facebook Login with Google

Why sign up and log in

Guitar Tabs Explorer
Metallica tabs for St anger album

Guitar tabs

ST.ANGER                .-.
        _.-~ /  _____  ______ __  _    _     _   ___ | ~-._
        \:/  -~||  __||_  __//  || |  | |  /| | / __/| .\:/
         /     ||  __|:| |\:/ ' || |__| |_/:| || (:/:|   \
        / /\/| ||____|:|_|:/_/|_||____|____||_|:\___\| |\ \
       / /:::|.:\::::\:\:\:|:||:||::::|:::://:/:/:::/:.|:\ \
      / /:::/ \::\::::\|\:\|:/|:||::::|::://:/\/:::/::/:::\ \
     /  .::\   \-~~~~~~~ ~~~~  ~~ ~~~~~~~~ ~~  ~~~~~-/\/:..  \
    /..:::::\                                         /:::::..\
   /::::::::-                                         -::::::::\
   \:::::-~                                             ~-:::::/
    \:-~                                                   ~-:/

This tab is created by Fade2black_tom
Frantic
St.Anger
Some Kind Of Monster
Dirty Window
Invisible Kid
My World
Shoot Me Again
Sweet Amber
The Unnamed Feeling
Purify
All Within My Hands

Corrections send to: Redhotchillipeppers_tom@hotmail.com



Frantic
Dropped-C tuning

Intro
    Guitar 1
    PM------------>     PM------------>          PM------------>      PM----------->
A chord diagramD MajorD|--------------------------------------------|--------------------------------------------|
A chord diagramA augmentedA|--------------------------------------------|--------------------------------------------|
A chord diagramFF|*-------------------------------------------|-------------------------------------------*|
A chord diagramC majorC|--------------------------------------------|--------------------------------------------|
A chord diagramG+G|*-------------------------------------------|-------------------------------------------*|
A chord diagramC majorC|--0-0-0-0-0-0-0-0-----0-0-0-0-0-0-0-0-------|--0-0-0-0-0-0-0-0-----0-0-0-0-0-0-0-0-------|
 |                                                                                         |
 |Guitar 2                                                                                 |
 |---------------------------------|
 |---------------------------------|
 |---------------------------------|
 |---------------------------------|
 |---------------------------------|
 |-6---3---0-0-0-0-5---0-0-0-0-0-0-|


 Guitar 1
   PM------------>      PM------------>         PM------------>       PM----------->
|--------------------------------------------|--------------------------------------------|
|--------------------------------------------|--------------------------------------------|
|*-------------------------------------------|-------------------------------------------*|
|--------------------------------------------|--------------------------------------------|
|*-------------------------------------------|-------------------------------------------*|
|--0-0-0-0-0-0-0-0------0-0-0-0-0-0-0-0------|--0-0-0-0-0-0-0-0------0-0-0-0-0-0-0-0------|
|                                                                                         |
|Guitar 2                                                                                 |
|        PM-    PM--->       PM-    PM--->            PM-    PM--->       PM-    PM--->   |
|--------------------------------------------|--------------------------------------------|
|--------------------------------------------|--------------------------------------------|
|*-------------------------------------------|-------------------------------------------*|
|--------------------------------------------|--------------------------------------------|
|*-------------------------------------------|-------------------------------------------*|
|--18-15-000-17-000000-18-15-000-17-000000---|--18-15-000-17-000000-18-15-000-17-000000---|


 Guitar 1
         PM-    PM--->       PM-    PM--->            PM-    PM--->       PM-    PM--->
|--------------------------------------------|--------------------------------------------|
|--------------------------------------------|--------------------------------------------|
|*-------------------------------------------|-------------------------------------------*|
|--------------------------------------------|--------------------------------------------|
|*-------------------------------------------|-------------------------------------------*|
|--18-15-000-17-000000-18-15-000-17-000000---|--18-15-000-17-000000-18-15-000-17-000000---|
|                                                                                         |
|Guitar 2                                                                                 |
|        PM-    PM--->       PM-    PM--->            PM-    PM--->       PM-    PM--->   |
|--------------------------------------------|--------------------------------------------|
|--------------------------------------------|--------------------------------------------|
|*-------------------------------------------|-------------------------------------------*|
|--------------------------------------------|--------------------------------------------|
|*-------------------------------------------|-------------------------------------------*|
|--18-15-000-17-000000-18-15-000-17-000000---|--18-15-000-17-000000-18-15-000-17-000000---|


 Guitar 2 (light distortion)                                              PM-------->
|--------------------------------------------|--------------------------------------------|
|--------------------------------------------|--------------------------------------------|
|--------------------------------------------|--------------------------------------------|
|--------------------------------------------|--------------------------------------------|
|--------------------------------------------|--------------------------------------------|
|--18-15-0-17-17----17-18-15-0-17-17----17---|--18-15-0-17-17----17-18-15-0-0-0-0-0-0-----|


%

Riff A chord diagramA augmentedA (Play 4 times)
 Guitars 1&2 (distorted)                                                  PM-------->
|--------------------------------------------|--------------------------------------------|
|--------------------------------------------|--------------------------------------------|
|--------------------------------------------|--------------------------------------------|
|--------------------------------------------|--------------------------------------------|
|--------------------------------------------|--------------------------------------------|
|--18-15-0-17-17----17-18-15-0-17-17----17---|--18-15-0-17-17----17-18-15-0-0-0-0-0-0-----|



Riff A chord diagramBB
 Guitars 1&2
          PM-------->         PM-------->              PM-------->         PM-------->
|--------------------------------------------|--------------------------------------------|
|--------------------------------------------|--------------------------------------------|
|*-------------------------------------------|-------------------------------------------*|
|--------------------------------------------|--------------------------------------------|
|*-6-\-3---------------6-\-3-----------------|--6-\-3---------------6-\-3----------------*|
|--6-\-3--0-0-0-0-0-0--6-\-3--0-0-0-0-0-0----|--6-\-3--0-0-0-0-0-0--6-\-3--0-0-0-0-0-0----|
"if i could have my wasted days back..."


Riff B1
 Guitars 1&2
   PM----------------------------------------------------------->
|--------------------------------------------|----------------------------|
|--------------------------------------------|----------------------------|
|--------------------------------------------|----------------------------|
|--------------------------------------------|----------------------------|
|--3-3-3-3-2-2-2-2-3-3-3-3-2-2-2-2-3-3-3-3---|--2-2-2-2-3-3-3-3-2-2-2-2---|
|--3-3-3-3-2-2-2-2-3-3-3-3-2-2-2-2-3-3-3-3---|--2-2-2-2-3-3-3-3-2-2-2-2---|
"do i have the strength..."


Riff A chord diagramBB
 Guitars 1&2
          PM-------->         PM-------->              PM-------->         PM-------->
|--------------------------------------------|--------------------------------------------|
|--------------------------------------------|--------------------------------------------|
|--------------------------------------------|--------------------------------------------|
|--------------------------------------------|--------------------------------------------|
|--6-\-3---------------6-\-3-----------------|--6-\-3---------------6-\-3-----------------|
|--6-\-3--0-0-0-0-0-0--6-\-3--0-0-0-0-0-0----|--6-\-3--0-0-0-0-0-0--6-\-3--0-0-0-0-0-0----|


 Guitar 2 (light distortion)                   Guitars 1&2 (distorted)
|--------------------------------------------|--------------------------------------------|
|--------------------------------------------|--------------------------------------------|
|--------------------------------------------|--------------------------------------------|
|--------------------------------------------|--------------------------------------------|
|--------------------------------------------|--------------------------------------------|
|--18-15-0-17-17----17-18-15-0-17-17----17---|--18-15-0-17-17----17-18-15-17-17----17-----|
                                               "you live it or lie it..."

 Guitar 2 (light distortion)
|--------------------------------------------|
|--------------------------------------------|
|--------------------------------------------|
|--------------------------------------------|
|--------------------------------------------|
|--18-15-0-17-17----17-18-15-0-17-17----17---|


 Guitars 1&2
|--------------------------------------------|--------------------------------------------|
|--------------------------------------------|--------------------------------------------|
|--------------------------------------------|--------------------------------------------|
|--------------------------------------------|--------------------------------------------|
|--------------------------------------------|--------------------------------------------|
|--0-0-0-0-0-0-0-0-0-----0-0-0-0-0-0-0-0-0---|--0-0-0-0-0-0-0-0-0-----0-0-0-0-0-0-0-0-0---|
"my lifestyle determines my deathstyle..."



Pre-Chorus
 Guitar 1 (Clean)
|--------------------------------------------||--------------------------------------------|
|-----------0--------------------0-----------||-----------0--------------------0-----------|
|*-------0------0----0--------0------0----0-*||*-------0------0----0--------0------0----0-*|
|-----6--------------------6-----------------||-----6--------------------6-----------------|
|*-8--------------------8-------------------*||*-8--------------------8-------------------*|
|--------------------------------------------||--------------------------------------------|
|                                                                                          |
|Guitar 2 (light distortion)                                                               |
|--------------------------------------------||--------------------------------------------|
|--------------------------------------------||--------------------------------------------|
|*------------------------------------------*||*---/7------5------4-----------------------*|
|----6~~~~ ---3~~~ ---5~~~~ -----------------||------------------------5~~~ ---------------|
|*------------------------------------------*||*------------------------------------------*|
|--------------------------------------------||--------------------------------------------|
"keep searchin' - keep on searchin'..."


Guitar 1 (Clean)
|--------------------------------------------||--------------------------------------------|
|-----------0--------------------0-----------||-----------0--------------------0-----------|
|*-------0------0----0--------0------0----0-*||*-------0------0----0--------0------0----0-*|
|-----6--------------------6-----------------||-----6--------------------6-----------------|
|*-8--------------------8-------------------*||*-8--------------------8-------------------*|
|--------------------------------------------||--------------------------------------------|
|                                                                                          |
|Guitar 2 (light distortion)                                                               |
|--------------------------------------------||--------------------------------------------|
|--------------------------------------------||--------------------------------------------|
|*---13~~~ ---10~~ ---12~~~ ----------------*||*---/7------5------4-----------------------*|
|--------------------------------------------||------------------------5~~~ ---------------|
|*------------------------------------------*||*------------------------------------------*|
|--------------------------------------------||--------------------------------------------|
"keep searchin' - keep on searchin'..."
end Pre-Chorus



Chorus
 Guitars 1&2                PM---->                            PM---->
|------------------------------------------------------------------------
|------------------------------------------------------------------------
|*-----------------------------------------------------------------------
|------------------------------------------------------------------------
|*-----------------------------------------------------------------------
|--18-18-18-18--15--17--17--0--0--0---18-18-18-18--15--17--17--0--0--0---
 "fran-tic tick tick tick tick tick tock..."


 Guitars 1&2                PM---->
 ---------------------------------------------------------------------------------|
 ---------------------------------------------------------------------------------|
 --------------------------------------------------------------------------------*|
 ---------------------------------------------------------------------------------|
 --------------------------------------------------------------------------------*|
 --18-18-18-18--15--17--17--0--0--0---18-18-18-18-15-15-15-15-17-12-12-12-12-12---|
 "fran-tic tick tick tick tick tick tock..."
end Chorus
#


== Go back to "%" symbol and play to "#" symbol. Then continue below. ==



Bridge Riff [3:46] (Play 12 times. Played fast!!)
 Guitars 1&2
|--------------------------------------------|
|--------------------------------------------|
|--------------------------------------------|
|--------------------------------------------|
|--------------------------------------------|
|--18p0-15p0-0-0-0-0-0-0-17-0-0-0-0-0-0-0----|



Bridge Riff A chord diagramA augmentedA [4:03] (Play 12 times. Play this fast too!)
 Guitars 1&2
|-----------------------------------------|
|-----------------------------------------|
|-----------------------------------------|
|--6p0-3p0-0-0-0-0-0-0-5-0-0-0-0-0-0-0----|
|-----------------------------------------|
|-----------------------------------------|


 Guitar 1
|------------------------------------------------|
|------------------------------------------------|
|*----------------------------------------------*|
|--6-6-6-3-3-3-5----------6-6-6-3-3-3-5----------|
|*----------------------------------------------*|
|------------------------------------------------|
|                                                |
|Guitar 2                                        |
|  PM---------------------------------------->   |
|------------------------------------------------|
|------------------------------------------------|
|*----------------------------------------------*|
|------------------------------------------------|
|*----------------------------------------------*|
|--0-0-0-0-0-0-0-0-0-0-0-0-0-0-0-0-0-0-0-0-0-0---|


 Guitars 1&2                                                                            *----->
|--------------------------------------------|--------------------------------------------------|
|--------------------------------------------|--------------------------------------------------|
|*-------------------------------------------|-------------------------------------------------*|
|--------------------------------------------|--------------------------------------------------|
|*-------------------------------------------|-------------------------------------------------*|
|--0-0-0-0-0-0-0-0-0-----0-0-0-0-0-0-0-0-0---|--0-0-0-0-0-0-0-0-0-----0-0-0-0-0-0-0-0-0-3-3-3-3-|
"my lifestyle determines my deathstyle..."
* = Guitar 2 only


== Pre-Chorus ==

==   Chorus   ==



Outro [5:15]
 Guitars 1&2-------------------------------->  Guitar 1
   PM->        PM->        PM->        PM->     PM->        PM->        PM->        PM->
|--------------------------------------------|--------------------------------------------|
|--------------------------------------------|--------------------------------------------|
|-----^-----------^-----------^-----------^--|-----^-----------^-----------^-----------^--|
|--0--0--------0--0--------0--0--------0--0--|--0--0--------0--0--------0--0--------0--0--|
|--0--0--------0--0--------0--0--------0--0--|--0--0--------0--0--------0--0--------0--0--|
|--0--0--------0--0--------0--0--------0--0--|--0--0--------0--0--------0--0--------0--0--|
                                             |                                            |
                                             | Guitar 2 starts riff A chord diagramC majorC                     |


Riff C------------------------------------------------------------->
Guitar 2
|----------------------------|     |-------------------------------|
|----------------------------|     |-------------------------------|
|----------------------------|     |-------------------------------|
|----------------------------|3X   |-------------------------------|1X
|----------------------------|     |-----------------------10------|
|--0--10-12--10-12-0-12-12---|     |--0--10-12--10-12-0-12----12---|


== Both Guitars play Riff A chord diagramC majorC 3 times ==


|-----------------||
|-----------------||
|-----------------||
|---------End of--||
|--0------Song----||
|--0--------------||




St. Anger
Dropped A chord diagramC majorC


Intro
Guitar 1
Clean
  Pm.........  pm................
d----------------------------------------------------------------
A----------------------------------------------------------------
F----------------------------------------------------------------
C----------------------------------------------------------------  x3
G----------------------------3-3-3-------------------------------
C--0-1-2-2-0-2-1-0-2-1-0-1-1-------------------------------------
  Pm......... pm..
d----------------------------------------------------------------
A----------------------------------------------------------------
F----------------------------------------------------------------
C----------------------------------------------------------------
G----------------------------------------------------------------
C-0-1-2-2-0-2-1-0-2----------------------------------------------

The when the drums kick in
a bit of distortion
d----------------------------------------------------------------
A----------------------------------------------------------------
F----------------------------------------------------------------
C----------------------------3-3-3------------------------------- x 8
G----1-2-2---2-1---2-1---1-1-3-3-3-------------------------------
C--0-1-2-2-0-2-1-0-2-1-0-1-1-------------------------------------

guitar 2
d----------------------------------------------------------------
A----------------------------------------------------------------
F----------------------------------------------------------------
C---------------------------------------------------------------- x 8
G--2-1-0----2-1-0------------------------------------------------
C--2-1-0----2-1-0------------------------------------------------

guitar 1
lots of distortion
d----------------------------------------------------------------
A----------------------------------------------------------------
F---------------------------------------------------------------- x 7
C---------------------------3-3-3--------------------------------
G---1-2-2---2-1---2-1---1-1-3-3-3--------------------------------
C-0-1-2-2-0-2-1-0-2-1-0-1-1--------------------------------------


Verse
d----------------------------------------------------------------
A---------1---3--------3---------3-----3-------------------------
F-----2----------------------------------------------------------
C--0-------------------------------------------------------------
G------------------3--------1--------1---------------------------
C----------------------------------------------------------------


Chorus
Guitar 1
hit these notes very quickly listen to the song for correct timing
d----------------------------------------------------------------
A---15-----13------11----10--------------------------------------
F----------------------------------------------------------------
C----------------------------------------------------------------
G----------------------------------------------------------------
C----------------------------------------------------------------
st. anger round my neck he ..........................

Guitar 2
d----------------------------------------------------------------
A----------------------------------------------------------------
F---7-----5-----3----2-------------------------------------------
C---7-----5-----2----2-------------------------------------------
G---5-----3-----1----0-------------------------------------------
C----------------------------------------------------------------

Fill bit
d----------------------------------------------------------------
A----------------------------------------------------------------
F-------------------5---3--2-------------------------------------
C-------------------5---2--2------------------------------------- x2
G--0----0-0--0-0----3---1--0-------------------------------------
C--0----0-0--0-0-------------------------------------------------
        x x  x x

2nd chorus sort of thing

d-----------------------------------------------------------------
A-----------------------------------------------------------------
F-------5---3---2-------------------------------------------------
C-------5---2---2------------------------------------------------- x 8
G--0----3---1---0-------------------------------------------------
C--0--------------------------------------------------------------
f*ck it all and no regrets I hit the lights on these dark sets.....


d----------------------------------------------------------------
A----------------------------------------------------------------
F----------------------------------------------------------------
C----------------------------------------------------------------
G-0---0-0---0-0---0-0---0-0--------------------------------------
C-0---0-0---0-0---0-0---0-0--------------------------------------
      x x   x x   x x   x x

Then the songs goes back into the distorted intro part.

d----------------------------------------------------------------
A----------------------------------------------------------------
F----------------------------------------------------------------
C----------------------------3-3-3------------------------------- x 8
G----1-2-2---2-1---2-1---1-1-3-3-3-------------------------------
C--0-1-2-2-0-2-1-0-2-1-0-1-1-------------------------------------


Some Kind Of Monster


Drop A chord diagramC majorC Tuning (CGCFAD)
Harmonic = <>

A chord diagramD MajorD |--------------------------------------------------------------------------|
A chord diagramA augmentedA |--------------------------------------------------------------------------|
A chord diagramFF |--------------------------------------------------------------------------|
A chord diagramC majorC |--------------------------------------------------------------------------|
A chord diagramG+G |--------------------------------------------------------------------------|
A chord diagramC majorC |-0--0-3-5-0--0-3-5-0-3-5-0-3-5-0--0-0-3-5-0--0-3-5-0-3-5-0-3-5------------|

A chord diagramD MajorD |--------------------------------------------------------------------------|
A chord diagramA augmentedA |--------------------------------------------------------------------------|
A chord diagramFF |--------------------------------------------------------------------------|
A chord diagramC majorC |--------------------------------------------------------------------------|
A chord diagramG+G |-0--0-3-5-0--0-3-5-0-3-5-0-3-5-0--0-0-3-5-0--0-3-5-0-3-5-0-3-5------------|
A chord diagramC majorC |-0--0-3-5-0--0-3-5-0-3-5-0-3-5-0--0-0-3-5-0--0-3-5-0-3-5-0-3-5------------|

A chord diagramD MajorD |--------------<5>--------------<5>----------------------------------------|
A chord diagramA augmentedA |--------------<5>--------------<5>----------------------------------------|
A chord diagramFF |--------------<5>--------------<5>----------------------------------------|
A chord diagramC majorC |--------------------------------------------------------------------------|
A chord diagramG+G |--5-3-3--5-0-------5-3-3--5-0---------------------------------------------|
A chord diagramC majorC |--5-3-3--5-0-------5-3-3--5-0---------------------------------------------|

A chord diagramD MajorD |--------------------------------------------------------------------------|
A chord diagramA augmentedA |--------------------------------------------------------------------------|
A chord diagramFF |--------------------------------------------------------------------------|
A chord diagramC majorC |------3-5------3-5------3-5------3-5------3-5------3-5------3-5-6---------|
A chord diagramG+G |-5--5-----5--5-----5--5-----5--5-----5--5-----5--5-----5--5---------------|
A chord diagramC majorC |--------------------------------------------------------------------------|
	I like playing the second one, but I think the first one is correct.
A chord diagramD MajorD |--------------------------------------------------------------------------|
A chord diagramA augmentedA |--------------------------------------------------------------------------|
A chord diagramFF |-------10-12-------10-12-------10-12-------10-12-------10-12------10-12-13|
A chord diagramC majorC |-12-12-------12-12-------12-12-------12-12-------12-12-------12-12--------|
A chord diagramG+G |--------------------------------------------------------------------------|
A chord diagramC majorC |--------------------------------------------------------------------------|

A chord diagramD MajorD |--------------------------------------------------------------------------|
A chord diagramA augmentedA |--------------------------------------------------------------------------|
A chord diagramFF |--------------------------------------------------------------------------|
A chord diagramC majorC |--------------------------------------------------------------------------|
A chord diagramG+G |-00-11/12-0-12-12-0-00-11/12-0-12-12-0------------------------------------|
A chord diagramC majorC |-00-11/12-0-12-12-0-00-11/12-0-12-12-0------------------------------------|

	Part where he goes  Yeah?
A chord diagramD MajorD |--------------------------------------------------------------------------|
A chord diagramA augmentedA |--------------------------------------------------------------------------|
A chord diagramFF |--------------------------------------------------------------------------|
A chord diagramC majorC |--------------------------------------------------------------------------|
A chord diagramG+G |-00-15-0-00-15-0-00-15-0-00-15-00-15-0-00-15-0-00-15-0-00-15--------------|
A chord diagramC majorC |-00-15-0-00-15-0-00-15-0-00-15-00-15-0-00-15-0-00-15-0-00-15--------------|


	Verse  These are the eyes that can t see me?
A chord diagramD MajorD |--------------------------------------------------------------------------|
A chord diagramA augmentedA |--------------------------------------------------------------------------|
A chord diagramFF |--------------------------------------------------------------------------|
A chord diagramC majorC |--------------------------------------------------------------------------|
A chord diagramG+G |----8------7------8------7------------------------------------------------|
A chord diagramC majorC |--0------0------0------0--------------------------------------------------|

A chord diagramD MajorD |--------------------------------------------------------------------------|
A chord diagramA augmentedA |--------------------------------------------------------------------------|
A chord diagramFF |--------------------------------------------------------------------------|
A chord diagramC majorC |--------------------------------------------------------------------------|
A chord diagramG+G |-0-0-0-0-0-1-2--0-0-0-0-0-1-2-0----------------------------------------|
A chord diagramC majorC |-0-0-0-0-0-1-2--0-0-0-0-0-1-2-0----------------------------------------|

	 We the people?
A chord diagramD MajorD |--------------------------------------------------------------------------|
A chord diagramA augmentedA |--------------------------------------------------------------------------|
A chord diagramFF |--------------------------------------------------------------------------|
A chord diagramC majorC |--------------------------------------------------------------------------|
A chord diagramG+G |-3-5-00-5-3-5-00--3-5-00-5-3-5-00-----------------------------------------|
A chord diagramC majorC |-3-5-00-5-3-5-00--3-5-00-5-3-5-00-----------------------------------------|

A chord diagramD MajorD |--------------------------------------------------------------------------|
A chord diagramA augmentedA |--------------------------------------------------------------------------|
A chord diagramFF |--------------------------------------------------------------------------|
A chord diagramC majorC |--------------------------------------------------------------------------|
A chord diagramG+G |-3-5-00-3-5-00-3-5-00-5-3-5-00--0-3-5-00-3-5-00-3-5-00-5-3-5-00-----------|
A chord diagramC majorC |-3-5-00-3-5-00-3-5-00-5-3-5-00--0-3-5-00-3-5-00-3-5-00-5-3-5-00-----------|

A chord diagramD MajorD |--------------------------------------------------------------------------|
A chord diagramA augmentedA |--------------------------------------------------------------------------|
A chord diagramFF |--------------------------------------------------------------------------|
A chord diagramC majorC |---3/5-3---------3/5-3----------------------------------------------------|
A chord diagramG+G |-0-------000-1-0-------000-111--------------------------------------------|
A chord diagramC majorC |-0-------000-1-0-------000-111--------------------------------------------|

	 This is the cloud that swallows trust?
A chord diagramD MajorD |--------------------------------------------------------------------------|
A chord diagramA augmentedA |--------------------------------------------------------------------------|
A chord diagramFF |--------------------------------------------------------------------------|
A chord diagramC majorC |--------------------------------------------------------------------------|
A chord diagramG+G |-0-3-3-0-3-3--0-3-3-0-3-3-----3-------------------------------------------|
A chord diagramC majorC |-0-3-3-0-3-3--0-3-3-0-3-3-3/5-3-------------------------------------------|

	 Ominous I m in us?
A chord diagramD MajorD |--------------------------------------------------------------------------|
A chord diagramA augmentedA |-----7-5-7-----7-5-7------7-5-7------7-5-7--------------------------------|
A chord diagramFF |-----7-5-7-----7-5-7------7-5-7------7-5-7--------------------------------|
A chord diagramC majorC |-----7-5-7-----7-5-7------7-5-7------7-5-7--------------------------------|
A chord diagramG+G |-0---------0----------0----------0----------------------------------------|
A chord diagramC majorC |-0---------0----------0----------0----------------------------------------|

A chord diagramD MajorD |-12-12-12-12----------12----12----12-12-12-12----------12----12-----------|
A chord diagramA augmentedA |-------------12-12-12----12----12-------------12-12-12----12----12--------|
A chord diagramFF |--------------------------------------------------------------------------|
A chord diagramC majorC |--------------------------------------------------------------------------|
A chord diagramG+G |--------------------------------------------------------------------------|
A chord diagramC majorC |--------------------------------------------------------------------------|


Dirty Window
Dropped A chord diagramC majorC Tuning


_____

INTRO
-----
(intro riff) x 5.6
A chord diagramD MajorD|----------------------|
A chord diagramA augmentedA|----------------------|
A chord diagramFF|----------------------|
A chord diagramC majorC|----------------------|
A chord diagramG+G|----------------------|
A chord diagramC majorC|-0-0-0-0--0--0--0-0--0|
(main riff) X5
A chord diagramD MajorD|-------------------------|
A chord diagramA augmentedA|-------------------------|
A chord diagramFF|-------------------------|
A chord diagramC majorC|-------------------------|
A chord diagramG+G|-------------------5-----|
A chord diagramC majorC|-0-3-5-0-3-5-0-3-5---6-5-|
(main riff tail) X1
A chord diagramD MajorD|---------------|
A chord diagramA augmentedA|---------------|
A chord diagramFF|---------------|
A chord diagramC majorC|---------------|
A chord diagramG+G|-0----0-3----3-|
A chord diagramC majorC|-0----0-3----3-|
(main riff) x1

_____

VERSE
-----
(main riff) x3
(main riff tail) x1

palmmuted(main riff) x2

(am i who i think i am? riff) X3
A chord diagramD MajorD|-------------------------|
A chord diagramA augmentedA|-------------------------|
A chord diagramFF|-------------------------|
A chord diagramC majorC|-------------------------|
A chord diagramG+G|-------------------------|
A chord diagramC majorC|-0-3-5-0-------0-3-5-7~~~|

(court is in session..riff) X1
A chord diagramD MajorD|---------------------------------------------|
A chord diagramA augmentedA|---------------------------------------------|
A chord diagramFF|---------------------------------------------|
A chord diagramC majorC|---------------------------------------------|
A chord diagramG+G|-3-6-8-3--3-6-8-------3-6-8-3---3-6-8-3-6-8--|
A chord diagramC majorC|-3-6-8-3--3-6-8-10~~--3-6-8-3---3-6-8-3-6-8--|

(main riff) x2
_________

PRECHORUS
---------
A chord diagramD MajorD|--------------------------------------------|
A chord diagramA augmentedA|--------------------------------------------|
A chord diagramFF|-2---2--2p0--0h3p2--------------------------|
A chord diagramC majorC|-0---3--------------------------------------|
A chord diagramG+G|--------------------------------------5-----|
A chord diagramC majorC|--------------------0-3-5-0-3-5-0-3-5---6-5-|X2

______

CHORUS
------
A chord diagramD MajorD|-----------------------------------------------|
A chord diagramA augmentedA|-----------------------------------------------|
A chord diagramFF|-----------------------------------------------|
A chord diagramC majorC|-----------------------------------------------|
A chord diagramG+G|-0-3-5-0----0-3-5-0----0-3-5-5------0-3-5-0----|
A chord diagramC majorC|-0-3-5-0----0-3-5-0----0-3-5---6-5--0-3-5-0----|

A chord diagramD MajorD|-----------------------------------------------|
A chord diagramA augmentedA|-----------------------------------------------|
A chord diagramFF|-----------------------------------------------|
A chord diagramC majorC|-----------------------------------------------|
A chord diagramG+G|-0-3-5-0----0-3-5-0----0-3-5-5------0-3-5-5----|
A chord diagramD MajorD|-0-3-5-0----0-3-5-0----0-3-5---6-5--0-3-5---6-5|

(intro riff) x 2

(main riff) x 1

_____

VERSE
-----
_________

PRECHORUS
---------
______

CHORUS
------

(intro riff) x 18

(main riff) x 2
_________

PRECHORUS
---------
______

CHORUS
------

(intro riff) to end


Invisible Kid
Dropped A chord diagramG#G#
G#, D#, G#, C#, F, A chord diagramA#A#


INTRO
A chord diagramA#A# |----------------------|
A chord diagramFF  |----------------------|
A chord diagramC#C# |----------------------|
A chord diagramG#G# |------------------0---|12x
A chord diagramD#D# |----------------------|
A chord diagramG#G# |-0-0--3h0-3h0-3h0-----|


A chord diagramA#A# |--------------|
A chord diagramFF  |--------------|
A chord diagramC#C# |--------------|
A chord diagramG#G# |-3-3--3/5--0--|16x
A chord diagramD#D# |-3-3--3/5--0--|
A chord diagramG#G# |-3-3--3/5--0--|


VERSE
A chord diagramA#A# |-----------------------------------------|
A chord diagramFF  |-----------------------------------------|
A chord diagramC#C# |-----------------------------------------|
A chord diagramA#A# |-000-3h0--000-3h0--000-3h0--00-3-3/5\3h0-|6x
A chord diagramD#D# |-----------------------------------------|
A chord diagramG#G# |-----------------------------------------|

BETWEEN VERSES (BRIDGE)
A chord diagramA#A# |-----------------|
A chord diagramFF  |-----------------|
A chord diagramC#C# |-----------------|5x(I think)
A chord diagramG#G# |-----------------|
A chord diagramD#D# |-----------------|
A chord diagramG#G# |0-3h0-0-3b(1/2)--|


VERSE x 6

A chord diagramA#A# |-----------------|
A chord diagramFF  |-----------------|
A chord diagramC#C# |-----------------|
A chord diagramG#G# |-----------------|5x(I think)
A chord diagramD#D# |-----------------|
A chord diagramG#G# |0-3h0-0-3b(1/2)--|

I HIDE INSIDE...
A chord diagramA#A# |---------------------------------------------------------------------------|
A chord diagramFF  |---------------------------------------------------------------------3/5-5-|
A chord diagramC#C# |---------------------------------------------------------------------1/3-3-|
A chord diagramG#G# |---------------------------------------------------------------------------|
A chord diagramD#D# |-0-0-0-0-1/3-3--0-0-0-0-1/3-3--0-0-0-0-1/3-3--0-0-0-0-1/3-3--0-0-0-0-------|
A chord diagramG#G# |-0-0-0-0-1/3-3--0-0-0-0-1/3-3--0-0-0-0-1/3-3--0-0-0-0-1/3-3--0-0-0-0-------|


My World
Dropped A chord diagramC majorC

 Intro
d|------------------------------------|----------------------------------------|
A chord diagramA augmentedA|------------------------------------|----------------------------------------|
A chord diagramFF|o----------------------------------o|----------------------------------------|
A chord diagramC majorC|o--------------------------0-------o|-------------------------0--------------|
A chord diagramG+G|---------------------------0--------|-------------------------2--------------|
A chord diagramC majorC|--0--0----0--0--0--0-------0--------|-0--0----0--0--0--0------1--------------|
    pm---------------|			pm---------------|
	     End Intro    Riff A chord diagramA augmentedA				      End Riff A chord diagramA augmentedA
d|----------------------|------------------------------------------------------|
A chord diagramA augmentedA|----------------------|------------------------------------------------------|
A chord diagramFF|----------------------|o----------------------------------------------------o|
A chord diagramC majorC|----------------------|o----------------------------------------------------o|
A chord diagramG+G|----------------------|-------------------------------------0h3h5~-----------|
A chord diagramC majorC|--0--0----0--0--0--0--|--0--0--0--3--0--0--5--0--0--0--0--0------------------|
    pm---------------|	      pm-|     pm-|     pm-|     pm-|
  Riff A1                              End Riff A1
d|------------------------------------------------|----------------------------|
A chord diagramA augmentedA|------------------------------------------------|----------------------------|
A chord diagramFF|o----------------------------------------------o|----------------------------|
A chord diagramC majorC|o----------------------------------------------o|----------------------------|
A chord diagramG+G|--------------------------------------0h3h5~----|----------------------------|
A chord diagramC majorC|--0--0--0--3--0--0--5--0--0--0--0--0------------|----------------------------|
       pm-|     pm-|     pm-|     pm-|
  Riff A2                             End Riff A2 Riff A chord diagramBB
d|-----------------------------------------------|-----------------------------|
A chord diagramA augmentedA|-----------------------------------------------|-----------------------------|
A chord diagramFF|o---------------------------------------------o|o----------------------------|
A chord diagramC majorC|o---------------------------------------------o|o----------------------------|
A chord diagramG+G|--0------3------5----------0----------0h3h5~---|-----------------------------|
A chord diagramC majorC|--0------3------5----------0-------------------|--0--0--0--3--0--0--5--0--0--|
						       pm-|     pm-|     pm-|
						    |1,              End Riff A chord diagramBB
d|-----------------------------------------------------------------------------|
A chord diagramA augmentedA|-----------------------------------------------------------------------------|
A chord diagramFF|----------------------------------------------------------------------------o|
A chord diagramC majorC|----------------------------------------------------------------------------o|
A chord diagramG+G|-----------0h3h5~----0---------3--------5----------3----------0--------------|
A chord diagramC majorC|--0--0--0------------0---------3--------5----------3----------0--------------|
       pm-|
   |2,
d|------------------------------------------|----------------------------------|
A chord diagramA augmentedA|------------------------------------------|----------------------------------|
A chord diagramFF|------------------------------------------|----------------------------------|
A chord diagramC majorC|------------------------------------------|---Repeat-Riff-B-Six-Times-More---|
A chord diagramG+G|--(5)----3----------0---------------------|----------------------------------|
A chord diagramC majorC|--(5)----3----------0---------------------|----------------------------------|

  Riff A3						            End Riff A3
d|-----------------------------------------------------------------------------|
A chord diagramA augmentedA|-----------------------------------------------------------------------------|
A chord diagramFF|o---------------------------------------------------------------------------o|
A chord diagramC majorC|o---------------------------------------------------------------------------o|
A chord diagramG+G|--0-------3---------5----------------------------------------(5)-------------|
A chord diagramC majorC|--0-------3---------5----------------------------------------(5)-------------|
								             x3
  Riff A4 - Half Time Feel				            End Riff A4
d|-----------------------------------------------------------------------------|
A chord diagramA augmentedA|-----------------------------------------------------------------------------|
A chord diagramFF|o---------------------------------------------------------------------------o|
A chord diagramC majorC|o---------------------------------------------------------------------------o|
A chord diagramG+G|--F5--D5--------F5--D5--------G5----Ab5--D5------After-this-play-Riff-A-x4---|
A chord diagramC majorC|-------------------------------------------------then-Riff-A2-x2-------------|
									     x7
  Riff A chord diagramC majorC - End Half Time Feel					     End Riff A chord diagramC majorC
d|-----------------------------------------------------------------------------|
A chord diagramA augmentedA|-----------------------------------------------------------------------------|
A chord diagramFF|o---------------------------------------------------------------------------o|
A chord diagramC majorC|o---------------------------------------------------------------------------o|
A chord diagramG+G|-----------------------------------------------------------------------------|
A chord diagramC majorC|--3p0--0--0--0--0--3p0------5---6p0---3p0--0--0--0--0--3p0-----5-----6p0-----|
         pm    pm-|			     pm    pm-|
  Riff A chord diagramD MajorD		       End Riff A chord diagramD MajorD Riff A chord diagramE MajorE		     End Riff A chord diagramE MajorE
d|---------------------------------------|-------------------------------------|
A chord diagramA augmentedA|---------------------------------------|-------------------------------------|
A chord diagramFF|o----------------------------5-(5)/7--o|o----------------------------5------o|
A chord diagramC majorC|o----------------------------5-(5)/7--o|o----------------------------5------o|
A chord diagramG+G|-----------------------------3-(3)/5---|-----------------------------3-------|
A chord diagramC majorC|--0--0--0--3--0--0--0--0--0------------|--0--0--0--3--0--0--0--0--0----------|
    pm----------------------|	    Repeat these 2 riffs in succession 14 times

d|-----------------------------------------------------------------------------|
A chord diagramA augmentedA|-----------------------------------------------------------------------------|
A chord diagramFF|o---------------------------------------------------------------------------o|
A chord diagramC majorC|o---------------------------------------------------------------------------o|
A chord diagramG+G|-----------0-----------3p0--2p0--0/6-------------------------3p0--2p0--0/6---|
A chord diagramC majorC|--0--0--0-----0--0--0--3p0--2p0--0/6----0--0--0--0--0--0--0--3p0--2p0--0/6---|
    pm----|     pm-|                      pm-------------|

d|-----------------------------------------------------------------------------|
A chord diagramA augmentedA|-----------------------------------------------------------------------------|
A chord diagramFF|-----------------------------------------------------------------------------|
A chord diagramC majorC|-----------------------------------------------------------------------------|
A chord diagramG+G|-----------0-----------3p0--2p0--0/6--0--0--0--0--0--0--0--0--0--3--3--0--2--|
A chord diagramC majorC|--0--0--0-----0--0--0--3p0--2p0--0/6--0--0--0--0--0--0--0--0--0--3--3--0--2--|
    pm----|     pm-|

d|-----------------------------------------------------------------------------|
A chord diagramA augmentedA|-----------------------------------------------------------------------------|
A chord diagramFF|-----------------------------------------------------------------------------|
A chord diagramC majorC|-----------------------------------------------------------------------------|
A chord diagramG+G|--0--0/6------------------Repeat-riff-C-x1-then-riff-A4-x8-------------------|
A chord diagramC majorC|--0--0/6---------------------------------------------------------------------|

  Riff A chord diagramFF
d|---------------------------------------------------|-------------------------|
A chord diagramA augmentedA|---------------------------------------------------|-------------------------|
A chord diagramFF|o-------------------------------------------------o|-------------------------|
A chord diagramC majorC|o-------------------------------------------------o|-------------------------|
A chord diagramG+G|--0--------------------------------------------0---|--0---------------0------|
A chord diagramC majorC|--0--0--3--0--5--0--6--0--5--0--3--0--5--0--6--0---|--0---------------0------|
       pm    pm    pm    pm    pm    pm    pm
				           harms-------|
d|-----------------------------------------------------------------------------|
A chord diagramA augmentedA|-----------------------------------------3--3--------------------------------|
A chord diagramFF|------------------------------------------------3----------------------------|
A chord diagramC majorC|-----------------------------------------------------------------------------|
A chord diagramG+G|--0----------------0--0------------------------------0-----------------------|
A chord diagramC majorC|--0----------------0--0------------------------------0-----------------------|


Shoot Me Again
Drop A chord diagramC majorC


intro part 1
I-xxxxxxxxxxxxxxxxxxxI----------------I
I-xxxxxxxxxxxxxxxxxxxI---0---0---0---0I
I-xxxxxxxxxxxxxxxxxxxI---0---0---0---0I
I-xxxxxxxxxxxxxxxxxxxI---0---0---0---0I
Rock wah w/ some delay

Intro Part 2
I-----------------------------I
I--0-0000--0-0000-0-00-0-0000-I
I--0-0000--0-0000-0-00-0-0000-I
I--0-0000--0-0000-0-00-0-0000-I
PM   ....    ....   ..   ....


riff 1
I---------------------I
I----------------1~~--I X4
I-00--5^6RB-000--1~~--I
I-00--------000--1~~--I
pm..        ...


riff 2 GUITAR 1
I------------------------------------------------------I
I--------------------------------------1111111---------I X2
I--------------------------------------1111111---------I
I-0--X--00-XX-0-X-00-XX-XXX-1-X-1-1-XX-1111111---------I


riff 2 GUITAR 2 add some flanger or phase to get it to sound right
I---7-----------8-----------------------I
I-7---7--10---8-----1111111-------------I  X2
I-5------8----6-----1111111-------------I
I-------------------1111111-------------I


riff 1 X4

riff 2 X2


riff 3 "shoot me again i ain't dead yet!"
I--------------------------I
I--------------------------I X4
I------0--3--1--1H2H3--3---I
I--XX--0--3--1--1H2H3--3---I


riff 4 "shoot me again, shoot me again, come on".. just make a buncha string noise...haha
I---------------------------------------------I
I--0--XXXX--0-XXXX-0-XXXX---XXXXXXXXXXXXXXXX--I X1
I--0--XXXX--0-XXXX-0-XXXX---XXXXXXXXXXXXXXXX--I
I--0--XXXX--0-XXXX-0-XXXX---XXXXXXXXXXXXXXXX--I


riff 5 "ALLLLLLL THE SHOOTS I TAKE!"
I------------------------------------------------------------------------I
I-------------------------------------------------/7/8888-7/8888-7/88----I X2
I----0---0------------3---3-------------1---1-----/5/6666-5/6666-5/66----I
I-00-0-0-0-00~-0-0H33-3-3-3-3~~3-1H3-11-1-1-1-1--------------------------I
pm   .   .            .   .             .   .

FILL 1.."ALL THE SHOOTS, ALL THE SHOOTS"
I---------------I
I---------------I
I--000000-0-----I
I--000000-0-----I


riff 5 X2 this time dont let the low A chord diagramC majorC ring..lil different than the 1st time.

riff 1 X4

riff 2 X2

riff 1 X4

riff 2 X2

riff 3 X4

riff 4 X1

riff 5 X2
fill 1 X1

riff 5 X2

riff 1 X4

INTRO
 Then at the end...had a slap back delay on riff 1..guitar 1 should do the low A chord diagramC majorC palm mute..
 and guitar 2 should do the bend/release with delay..
fill 2
I---------------------I
I---------------------I
I-000000000-----------I
I-000000000-----------I


riff 6
I------------------------------------------I
I------------------------------------------I
I-1-0-1-0-1-0-1-0-1-0-1-0-1-0-1-0-1-0-1-1~-I
I-1-0-1-0-1-0-1-0-1-0-1-0-1-0-1-0-1-0-1-1~-I

fill 3
I--------------------------------------I
I--12h13131313--12h13131313--12h1313---I


Sweet Amber
dropped A chord diagramC majorC tuning

Gtr 1
|-----------------------------------|-----------------------------------|--
|-----------------------------------|-----------------------------------|--
|-----------------------------------|-----------------------------------|--
|------------------------15^(17)15~-|------------------------15^(17)15~-|--
|---15---(17)17~--15-17-------------|---15---(17)17~--15-17-------------|--
|-----------------------------------|-----------------------------------|--
|
|*Added 5th tabbed for guitar
|-----------------------------------|-----------------------------------|--
|-----------------------------------|-----------------------------------|--
|------------------------15^(17)15~-|------------------------15^(17)15~-|--
|---15---(17)17~--15-17-------------|---15---(17)17~--15-17-------------|--
|-----------------------------------|-----------------------------------|--
|-----------------------------------|-----------------------------------|--

 -----------------------------------|-----------------------------------|
 -----------------------------------|-----------------------------------|
 -----------------------------------|-----------------------------------|
 ------------------------15^(17)15~-|-----------------------------------|
 ---15---(17)17~--15-17-------------|---15---(17)17~~~------------------|
 -----------------------------------|-----------------------------------|

 -----------------------------------|-----------------------------------|
 -----------------------------------|-----------------------------------|
 ------------------------15^(17)15~-|-----------------------------------|
 ---15---(17)17~--15-17-------------|---15---(17)17~~~------------------|
 -----------------------------------|-----------------------------------|
 -----------------------------------|-----------------------------------|

Gtr 1 w/dist

|----------------------------------------------------|--------------------------
|----------------------------------------------------|--------------------------
|----------------------------------------------------|--------------------------
|--X---XX---X----------------------------------------|--------------------------
|--X---XX---X----3---5-5 -5 -5-5-5--3-5---8^(10)8----|---3---5-5--5 -5-5-5--3-5-
|--X---XX---X----0---0-0 -0--0-0-0--0-0---0----------|---0---0-0--0--0-0-0 -0-0-
|--Rhy Fig 1

-------------|---------------------------------------|-----------------------------
-------------|---------------------------------------|-----------------------------
-------------|---------------------------------------|-----------------------------
-------------|---------------------------------------|-----------------------------
--8^(10)8----|---3---5-5--5 -5-5-5--3-5---8^(10)8----|---3---5-5--5--5-5-5 -5--5-5-
--0----------|---0---0-0 -0 -0-0-0 -0-0---0----------|---0---0-0 -0 -0-0-0 -0 -0-0-

--------------------|
--------------------|
--------------------|
--------------------|
-5-5 -5 -5-5-5-5----|
-0-0 -0 -0-0-0-0----|
     End Rhy Fig 1--|

|---------------------------------------|---------------------------------------
|---------------------------------------|---------------------------------------
|---------------------------------------|---------------------------------------
|---------------------------------------|---------------------------------------
|---3---5-5 -5 -5-5-5--3-5---8^(10)8----|---3---5-5 -5 -5-5-5--3-5---8^(10)8----
|---0---0-0--0--0-0-0--0-0---0----------|---0---0-0--0--0-0-0--0-0---0----------
|--Rhy Fig 2
|
|Gtr 2
|---------------------------------------|---------------------------------------
|---------------------------------------|---------------------------------------
|---------------------------------------|---------------------------------------
|---------------------------------------|---------------------------------------
|---------------------------------------|--(5) -5-5-----------------------------
|---------------------------------------|---0---0-0-----------------------------

 ---------------------------------------|------------------------
 ---------------------------------------|------------------------
 ---------------------------------------|------------------------
 ---------------------------------------|------------------------
 ---3---5-5 -5 -5-5-5--3-5---8^(10)8----|---3---5-5--5--5-5-5 -5-
 ---0---0-0--0--0-0-0--0-0---0----------|---0---0-0 -0 -0-0-0 -0?
|
 ---------------------------------------|
 ---------------------------------------|
 ---------------------------------------|
 ---------------------------------------|
 ---5---5-5--5--------------------------|
 ---0---0-0--0--------------------------|


 -----------------------|
 -----------------------|
 -----------------------|
 -----------------------|
 -5-5-5-5 -5 -5-5-5-5---|
 -0-0-0-0 -0 -0-0-0-0---|
         End Rhy Fig 2--|

 Grt 2 w/Rhy Fig 2 (Grt1)
||---------------------------------------|---------------------------------------
||---------------------------------------|---------------------------------------
||*--------------------------------------|---------------------------------------
||*--------------------------------------|---------------------------------------
||---3---5-5 -5 -5-5-5--3-5---8^(10)8----|---3---5-5 -5 -5-5-5--3-5---8^(10)8----
||---0---0-0--0--0-0-0--0-0---0----------|---0---0-0--0--0-0-0--0-0---0----------

  ---------------------------------------|-------------------------
  ---------------------------------------|-------------------------
  ---------------------------------------|-------------------------
  ---------------------------------------|-------------------------
  ---3---5-5 -5 -5-5-5--3-5---8^(10)8----|---3---5-5--5--5-5-5 -5--
  ---0---0-0--0--0-0-0--0-0---0----------|---0---0-0 -0 -0-0-0 -0 -

  -----------------------||
  -----------------------||
  ----------------------*||
  ----------------------*||
  -5-5-5-5 -5 -5-5-5-5---||
  -0-0-0-0 -0 -0-0-0-0---||

 Gtr 1 w/Rhy Fig 2 (Gtr 2)
|---------------------------------------|------------------
|---------------------------------------|------------------
|---------------------------------------|------------------
|---15^(17~~)-----------------15^(17)15-|------------------
|-----------17~~~------15-17------------|---15--17-17 -17 -
|----------------------0--0-------------|---0---0--0---0---
                                        |--Rhy Fig 3

------------------------------|----------------------------------------------|
------------------------------|----------------------------------------------|
------------------------------|----------------------------------------------|
--------------------15^(17)15-|------------------------------------15^(17)15-|
--17-17-17--15-17-------------|---15--17-17 -17 -17-17-17--15-17-------------|
--0--0--0---0--0--------------|---0---0--0---0---0--0--0---0--0--------------|
               End Rhy Fig 3--|

|----------------------------------------------------------------|
|----------------------------------------------------------------|
|----------------------------------------------------------------|
|----------------------------------------------------------------|
|---15---17-17--17--17-17-17 -17--17-17--17-17 -17 -17-17-17-17--|
|---0----0--0---0---0--0--0---0---0 -0---0 -0---0---0 -0 -0 -0---|
|--Rhy Fill 1                                    End Rhy Fill 1--|


 Verse 1

 Gtrs 2 w/Rhy Fig 3 (x3) and Rhy Fill 1 (x1)

 Wash your back so you won t stab mine    Get in bed with your own kind
||--------------------------------------|---------------------------------------|
||--------------------------------------|---------------------------------------|
||*-------------------------------------|---------------------------------------|
||*-------------------------------------|---------------------------------------|
||--3---5-5--5 -5-5-5--3-5---8^(10)8----|---3---5-5--5 -5-5-5--3-5---8^(10)8----|
||--0---0-0 -0 -0-0-0 -0-0---0----------|---0---0-0 -0 -0-0-0 -0-0---0----------|

 Live your life so you don t see mine       Drape your back so
|---------------------------------------|-----------------------------
|---------------------------------------|-----------------------------
|---------------------------------------|-----------------------------
|---------------------------------------|-----------------------------
|---3---5-5--5 -5-5-5--3-5---8^(10)8----|---3---5-5--5--5-5-5 -5--5-5-
|---0---0-0 -0 -0-0-0 -0-0---0----------|---0---0-0 -0 -0-0-0 -0 -0-0-

  you won t shine
 --------------------||
 --------------------||
 -------------------*||
 -------------------*||
 -5-5 -5 -5-5-5-5----||
 -0-0 -0 -0-0-0-0----||


Pre-Chorus 1
 Gtr 1

 O__________________h  then she holds my hand   and I lie to get a smile
||-----------------------------------------------------------------------
||-----------------------------------------------------------------------
||*----------------------------------------------------------------------
||*--0 -------------(0)---------------------10-------8------6------------
||---0 -------------(0)---------------------10-------8------6------------
||---0 -------------(0)---------------------10-------8------6------------
|--Rhy Fig 4a
|
| Gtr 2
|------------------------------------------------------------------------
|------------------------------------------------------------------------
|------------------------------------------------------------------------
|---0--------------(0)----------------------3--------8------6------------
|---0--------------(0)----------------------3--------8------6------------
|---0--------------(0)----------------------3--------8------6------------
|--Rhy Fig 4b

|1.
|----------------------------------------|----------------------------------------||
|----------------------------------------|----------------------------------------||
|----------------------------------------|---------------------------------------*||
|---------------------3-------3-2--------|---------------------3-------3-2-------*||
|---------------------3-------3-2--------|---------------------3-------3-2--------||
|---0---0-0---0-0----------0-------------|---0---0-0---0-0----------0-------------||
|
|Gtr 2
|----------------------------------------|----------------------------------------||
|----------------------------------------|----------------------------------------||
|----------------------------------------|---------------------------------------*||
|---------------3-----3-------3-2--------|---------------3-----3-------3-2-------*||
|---------------3-----3-------3-2--------|---------------3-----3-------3-2--------||
|---0---0-0---0-0----------0-------------|---0---0-0---0-0----------0-------------||

|2. Using what I want to get what you want   Using what I want to get what you want
||---------------------------------------|----------------------------------------||
||---------------------------------------|----------------------------------------||
||*--------------------------------------|---------------------------------------*||
||*-------------------3-------3-2--------|---------------------3-------3-2-------*||
||--------------------3-------3-2--------|---------------------3-------3-2--------||
||--0---0-0---0-0----------0-------------|---0---0-0---0-0----------0-------------||
|                                                                 End Rhy Fig 4a--||
|                                                                                 ||
|Gtr 2                                                                            ||
||---------------------------------------|----------------------------------------||
||---------------------------------------|----------------------------------------||
||*--------------------------------------|---------------------------------------*||
||*-------------3-----3-------3-2--------|---------------3-----3-------3-2-------*||
||--------------3-----3-------3-2--------|---------------3-----3-------3-2--------||
||--0---0-0---0-0----------0-------------|---0---0-0---0-0----------0-------------||
|                                                                 End Rhy Fig 4b--||

 Chorus

 Gtrs 1&2
 Oo_______________h  Sweet Amber                    How sweet are you?
|--------------------------------------------------------------------------
|--------------------------------------------------------------------------
|--------------------------------------------------------------------------
|---0------(0)-------2--------8-----6-----0-0-0--3--5---0-0--5-0-----------
|---0------(0)-------2--------8-----6-----0-0-0--3--5---0-0--5-0-----------
|---0------(0)-------2--------8-----6-----0-0-0--3--5 --0-0 -5-0-----------

              How sweet does it get?           How sweet are yo__u?
 -----------------------------------------------------------------------------------
 ---------------------------------------------------------------------------------
 ---------------------------------------------------------------------------------
 ---0-0-0--3--5---0-0--5-0------------0-0-0--3--5 --0-0 -5-0---------------------
 ---0-0-0--3--5---0-0--5-0------------0-0-0--3--5 --0-0 -5-0---------------------
 ---0-0-0--3--5 --0-0 -5-0------------0-0-0--3--5 --0-0 -5-0----------------------

             How sweet does it Get?
 -----------------------------------|
 -----------------------------------|
 -----------------------------------|
 ---0-0-0--3--5---0-0--5-0----------|
 ---0-0-0--3--5---0-0--5-0----------|
 ---0-0-0--3--5 --0-0 -5-0----------|


 Rhy Fig 1 [x1] (Gtr 1)

 Rhy Fig 2 Gtrs 1&2


 Gtrs 2 w/Rhy Fig 3 (x3) and Rhy Fill 1 (x1)

 Chase the rabbit, fetch the stick          She rolls me over  till I m sick
||--------------------------------------|---------------------------------------|
||--------------------------------------|---------------------------------------|
||*-------------------------------------|---------------------------------------|
||*-------------------------------------|---------------------------------------|
||--3---5-5--5 -5-5-5--3-5---8^(10)8----|---3---5-5--5 -5-5-5--3-5---8^(10)8----|
||--0---0-0 -0 -0-0-0 -0-0---0----------|---0---0-0 -0 -0-0-0 -0-0---0----------|

 She deals in habits, deals in pain          I run away, but
|---------------------------------------|-----------------------------
|---------------------------------------|-----------------------------
|---------------------------------------|-----------------------------
|---------------------------------------|-----------------------------
|---3---5-5--5 -5-5-5--3-5---8^(10)8----|---3---5-5--5--5-5-5 -5--5-5-
|---0---0-0 -0 -0-0-0 -0-0---0----------|---0---0-0 -0 -0-0-0 -0 -0-0-

  I m back again
 --------------------||
 --------------------||
 -------------------*||
 -------------------*||
 -5-5 -5 -5-5-5-5----||
 -0-0 -0 -0-0-0-0----||

 Pre-Chorus 2
 w/Figures 4a and b (with repeats)

| O__________________h  then she holds my hand   and I lie to get a smile
|--------------------------------------------------------------------------------

|----------------------------------------|---------------------------------------

| O__________________h  and she sqeezes tighter, I still lie to get a smile
|---------------------------------------------------------------------------------

| Using what I want to get what you want   Using what I want to get what you want
|----------------------------------------|----------------------------------------

| Using what I want to get what you want   Using what I want to get what you want
|----------------------------------------|----------------------------------------|

Repeat Chorus


Bridge 1

 Gtr 1
||-------------------------------------------------------|---------------
||-------------------------------------------------------|---------------
||*------------------------------------------------------|---------------
||*------------------------------------------------------|---------------
||--17--17-17-17---17 -17-17-17---17--17-17-17---20-17---|--19--19-19-19-
||--0---0--0--0----0---0--0--0----0---0--0--0----0--0----|--0---0--0--0--
|--Rhy Fig 5a

 ---------------------------------------||
 ---------------------------------------||
 --------------------------------------*||
 --------------------------------------*||
 --19--19-19-19---19--19-19-19---20-19--||
 --0---0--0--0----19--19-19-19---19-19--||
                         End Rhy Fig 5a--|


 Gtr 2 w/Rhy Fig 5a (with repeats)
||-------------------------------------------------------|---------------
||-------------------------------------------------------|---------------
||*------------------------------------------------------|---------------
||*------------------------------------------------------|---------------
||--5--5--5--5----5---5--5--5----5---5--5--5----5--5-----|--7---7 -7 -7--
||--0--0--0--0----0---0--0--0----0---0--0--0----0--0-----|--0---0--0--0--
|--Rhy Fig 5b

  ---------------------------------------||
  ---------------------------------------||
  --------------------------------------*||
  --------------------------------------*||
  --7---7 -7 -7----7---7 -7 -7----7 -7---||
  --0---0 -0 -0----7---7 -7 -7----7 -7---||
                         End Rhy Fig 5b--||


 W/ Rhy Figs 5a&b with repeats

|       She holds the pen that spells the end,            she traces me
|-------------------------------------------------------|----------------

        and draws me in
  --------------------------------------*||
                                        *||

Gtrs 1&2
 Oo_______________h  Sweet Amber                    How sweet are you?
|--------------------------------------------------------------------------
|--------------------------------------------------------------------------
|--------------------------------------------------------------------------
|---0------(0)-------2--------8-----6-----0-0-0--3--5---0-0--5-0-----------
|---0------(0)-------2--------8-----6-----0-0-0--3--5---0-0--5-0-----------
|---0------(0)-------2--------8-----6-----0-0-0--3--5 --0-0 -5-0-----------


Bridge 2

Gtr 1
||-------------------------------------------------------|---------------
||-------------------------------------------------------|---------------
||*------------------------------------------------------|---------------
||*------------------------------------------------------|---------------
||--5---5 -5 -5----5---5--5 -5----5---5 -5 -5----8 -5----|--7---7 -7 -7--
||--0---0--0--0----0---0--0--0----0---0--0--0----0--0----|--0---0--0--0--
|
| Gtr 2                                       N.H--------|
||-------------------------------------------------------|---------------
||-------------------------------------------------------|---------------
||*------------------------------------------------------|---------------
||*------------------------------------------------------|---------------
||--7---5--0--0----7---5--0--0----7---5--0--0------------|--7---8 -7 -7--
||--0---0--0--0----0---0--0--0----0---0--0--0----5-5-5-5-|--0---0--0--0--

  ---------------------------------------||
  ---------------------------------------||
  --------------------------------------*||
  --------------------------------------*||
  --7---7 -7 -7----7---7 -7 -7----8--7---||
  --0---0 -0 -0----7---7 -7 -7----7--7---||

                               N.H-------|
  ---------------------------------------||
  ---------------------------------------||
  --------------------------------------*||
  --------------------------------------*||
  --7---8 -7 -7----7---8 -7 -7----- -----||
  --0---0 -0 -0----7---7 -7 -7---5-5 5-5-||

Repeat Chorus

 Outro

 Gtr 1
|---------------------------------------|---------------------------------------
|---------------------------------------|---------------------------------------
|---------------------------------------|---------------------------------------
|---------------------------------------|---------------------------------------
|---3---5-5 -5 -5-5-5--3-5---8^(10)8----|---3---5-5 -5 -5-5-5--3-5---8^
ⓘ Guitar tab for 'St Anger Album' by Metallica, a thrash metal band formed in 1981 from Los Angeles, USA. Metallica is known for their angry metal music.

Other versions of St Anger Album

St angerChords
St angerTabs
St anger1Tabs
St anger2Tabs

Almost there ...

Sign in to get your own page with links to favourite songs and more. You are just one click away...

Login with Facebook Login with Google