Log in

One click and you are in

Login with Facebook Login with Google

Why sign up and log in

Guitar Tabs Explorer
Metallica tabs for St  anger

Guitar tabs

St. Anger
---------

Guitar tuning:
1-c
2-A
3-F
4-D
5-A
6-C

To make this tab I listened and watched the DVD. I suggest you do it to understand it better.

1)
c---------------------------------
A---------------------------------
F---------------------------------
C---------------------------------
G----------------------------3-3-3
C--0-1-2-2-1-2-1-0-2-1-0-1-2------
PM .........   ...   .......

1m)
c---------------------------------
A---------------------------------
F---------------------------------
C----------------------------3-3-3
G----------------------------3-3-3
C--0-1-2-2-1-2-1-0-2-1-0-1-2------
PM .........   ...   .......

2)
c-------------------
A-------------------
F-------------------
C-------------------
G------------------2
C--0-1-2-2-1-2-1-0-2
PM .........   ...

3)
c---------------------------------
A---------------------------------
F---------------------------------
C----------------------------3-3-3
G--0-1-2-2-1-2-1-0-2-1-0-1-2-3-3-3
C--0-1-2-2-1-2-1-0-2-1-0-1-2------
PM .........   ...   .......

3m)
c---------------------------------------------
A---------------------------------------------
F---------------------------------------------
C----------------------------------------3-3-3
G--0-1-2-2-1-2-1-0-2-1-0-2-1-0-2-1-0-1-2-3-3-3
C--0-1-2-2-1-2-1-0-2-1-0-2-1-0-2-1-0-1-2------
PM .........   ...   ....  ...   .......

3K)
c-------------
A-------------
F-------------
C-------------
G--2-1-0-2-1-0
C--2-1-0-2-1-0
PM   ...   ...

4)
c---------------------------------
A---------------------------------
F---------------------------------
C----------------------------3-3-3
G--0-1-2-2-1-2-1-0-2-1-0-1-2-3-3-3
C--0-1-2-2-1-2-1-0-2-1-0-1-2------

4m)
c-------------------------
A-------------------------
F-------------------------
C-------------------------
G--2-1-0-2-1-0-2-1-0-2-1-0
C--2-1-0-2-1-0-2-1-0-2-1-0
PM   ...   ...   ...   ...

5J)
c-------5----------
A-------1-3-1-3-3--
F-----------------0
C-0-0-0------------
G------------------
C------------------

5K)
c-------5-2p0------------------
A---3---------------3-----3---3
F-----------------0---0--------
C-0---0-------0----------------
G---------------3-------1---0--
C------------------------------

6J)
c----------------------------------------------------------------
A----------------------------------------------------------------
F-7-7-7-7-7-7-7-7-7-7-7-7-7-7-7-7-5-5-5-5-5-5-5-5-9-9-9-9-9-9-9-9
C----------------------------------------------------------------
G-5-5-5-5-5-5-5-5-5-5-5-5-5-5-5-5-3-3-3-3-3-3-3-3-7-7-7-7-7-7-7-7
C----------------------------------------------------------------

6K)
c------------------------------------------------------------------------
A------------------------------------------------------------------------
F-7-7-7-7-7-7-7-7-7-7-7-7-7-7-7-7-5-5-5-5-5-5-5-5-15-15-15-15-14-14-14-14
C------------------------------------------------------------------------
G-5-5-5-5-5-5-5-5-5-5-5-5-5-5-5-5-3-3-3-3-3-3-3-3-13-13-13-13-12-12-12-12
C------------------------------------------------------------------------

7)
c---------------------
A---------------------
F---------------------
C-0------------10--8-7
G-0--0-0--0-0--10--7-7
C-0--0-0--0-0--10--7-7
PM   ...  ...

8K)
c----------------------------------------------------------------------------------------------------
A----------------------------------------------------------------------------------------------------
F----------------------------------------------------------------------------------------------------
C-------------------------------------------------------------------------------------------------8-7
G-------------------------------------------------------------------------------------------------7-7
C-0-0-0-0-0-0-0-0-0-0-0-0-0-0-0-0-0-0-0-0-0-0-0-0-0-0-0-0-0-0-0-0-8-8-8-8-8-8-8-8-8-8-8-8-8-8-8-8-7-7
PM...............................................................................................

9)
c----------------------
A----------------------
F----------------------
C-0--------------------
G-0--0-0--0-0--0-0--0-0
C-0--0-0--0-0--0-0--0-0
PM   ...  ...  ...  ...

James:	1(x3); 2; 3(x3); 3m; 4(x8); 4m; 5J(x4); 6J(x4); 7(x2); 6J(x8); 9; 1m; 4(x8); 4m; 5J(x4);
	6J(x4); 7(x2); 6J(x8); 9; 1(x4); 3(x3); 3m; 3(x3); 3m; 4(x26); 4m; 6J(x8); 9; 3;

Kirk:	tacet; 4m; 3K(x3); 4m; 4(x8); 4m; 5K(x4); 6K(x4); 7(x2); 8K(x8); 9; tacet; 4(x8); 4m;
	5K(x4); 6K(x4); 7(x2); 8K(x8); 9; tacet; 4m; 3K(x3); 4m; 4(x26); 4m; 8K(x8); 9;

Almost there ...

Sign in to get your own page with links to favourite songs and more. You are just one click away...

Login with Facebook Login with Google