Log in

One click and you are in

Login with Facebook Login with Google

Why sign up and log in

Guitar Tabs Explorer
Metallica tabs for So what

Guitar tabs

rdylongr@zeus.polsl.gliwice.pl>

                               -- Metallica --

                              " ** So What ** "

                              Transcription  by
                                Rafael Dylong

  So fucking
     what!      Gtr1
||------------||-----------|-----------|---------|-----------|
||------------||-----------|-----------|---------|-----------|
||------------||-----------|-----------|---------|-----------|
||------------||-5\7-7-7-7-|-5\7-7-7-7-|-5-7-5-7-|-5\7-7-7-7-|
||------------||-5\7-7-7-7-|-5\7-7-7-7-|-5-7-5-7-|-5\7-7-7-7-|
||------------||-3\5-5-5-5-|-3\5-5-5-5-|-3-5-3-5-|-3\5-5-5-5-|

 Gtr1&2
|-----------|-----------|---------|-----------|
|-----------|-----------|---------|-----------|
|-----------|-----------|---------|-----------|
|-5\7-7-7-7-|-5\7-7-7-7-|-5-7-5-7-|-5\7-7-7-7-|
|-5\7-7-7-7-|-5\7-7-7-7-|-5-7-5-7-|-5\7-7-7-7-|
|-3\5-5-5-5-|-3\5-5-5-5-|-3-5-3-5-|-3\5-5-5-5-|


|----------|----------|----------|----------|           \
|----------|----------|----------|----------|            \
|-5\7777777|-77777777-|-77777777-|-77777777-|            |
|-5\7777777|-77777777-|-77777777-|-77777777-|            |
|-3\5555555|-55555555-|-55555555-|-55555555-|            |
|----------|----------|----------|----------|            |
                                                         |
                                                         |
|-----------|-----------|---------|-----------|          |
|-----------|-----------|---------|-----------|          |
|-----------|-----------|---------|-----------|          |
|-5\7-7-7-7-|-5\7-7-7-7-|-5-7-5-7-|-5\7-7-7-7-|          |
|-5\7-7-7-7-|-5\7-7-7-7-|-5-7-5-7-|-5\7-7-7-7-|          |
|-3\5-5-5-5-|-3\5-5-5-5-|-3-5-3-5-|-3\5-5-5-5-|          |
                                                         |
                                                         |
|----------|----------|----------|----------|            |
|----------|----------|----------|----------|            |
|-5\7777777|-77777777-|-77777777-|-77777777-|            |
|-5\7777777|-77777777-|-77777777-|-77777777-|            |
|-3\5555555|-55555555-|-55555555-|-55555555-|            |
|----------|----------|----------|----------|            \    3 times
                                                          \
                                                           >  1&2&3 Verse
|-----------|-----------|---------|-----------|           /
|-----------|-----------|---------|-----------|          /
|-----------|-----------|---------|-----------|          |
|-5\7-7-7-7-|-5\7-7-7-7-|-5-7-5-7-|-5\7-7-7-7-|          |
|-5\7-7-7-7-|-5\7-7-7-7-|-5-7-5-7-|-5\7-7-7-7-|          |
|-3\5-5-5-5-|-3\5-5-5-5-|-3-5-3-5-|-3\5-5-5-5-|          |
                                                         |
 Gtr1                                                    |
|----------|----------|-----------|-----------|          |
|----------|----------|-----------|-----------|          |
|----------|-----2----|-----------|-----------|          |
|-----2----|---2---2--|-5\7-7-7-7-|-5\7-7-7-7-|          |
|---2---2--|-1--------|-5\7-7-7-7-|-5\7-7-7-7-|          |
|-1--------|----------|-3\5-5-5-5-|-3\5-5-5-5-|          |
|          |          |           |           |          |
|Gtr2      |          |           |           |          |
|----------|-6--------|-----------|-----------|          |
|-----6----|---6------|-----------|-----------|          |
|---5---5--|-----3----|-----------|-----------|          |
|-3--------|-------3--|-----------|-----------|          |
|----------|----------|-----------|-----------|          |
|----------|----------|-----------|-----------|          |
                                                         |
                                                         |
 Gtr1                                                    |
|----------|----------|-----------|-----------|          |
|----------|----------|-----------|-----------|          |
|----------|-----2----|-----------|-----------|          |
|-----2----|---2---2--|-5\7-7-7-7-|-5\7-7-7-7-|          |
|---2---2--|-1--------|-5\7-7-7-7-|-5\7-7-7-7-|          |
|-1--------|----------|-3\5-5-5-5-|-3\5-5-5-5-|          |
|          |          |           |           |          |
|Gtr2      |          |           |           |          |
|----------|-6--------|-----------|-----------|          |
|-----6----|---6------|-----------|-----------|          |
|---5---5--|-----3----|-----------|-----------|          |
|-3--------|-------3--|-----------|-----------|          |
|----------|----------|-----------|-----------|          |
|----------|----------|-----------|-----------|          |
                                                         |
|---------|-----------|                                  |
|---------|-----------|                                  |
|---------|-----------|                                  |
|-5-7-5-7-|-5\7-7-7-7-|                                  |
|-5-7-5-7-|-5\7-7-7-7-|                                  /
|-3-5-3-5-|-3\5-5-5-5-|                                 /

 Gtr1
|----------|----------|----------|----------|           \
|----------|----------|----------|----------|            \
|-5\7777777|-77777777-|-77777777-|-77777777-|            |
|-5\7777777|-77777777-|-77777777-|-77777777-|            |
|-3\5555555|-55555555-|-55555555-|-55555555-|            |
|----------|----------|----------|----------|            |
                                                         |
                                                         |
|-----------|-----------|---------|-----------|          |
|-----------|-----------|---------|-----------|          |
|-----------|-----------|---------|-----------|          |
|-5\7-7-7-7-|-5\7-7-7-7-|-5-7-5-7-|-5\7-7-7-7-|          |
|-5\7-7-7-7-|-5\7-7-7-7-|-5-7-5-7-|-5\7-7-7-7-|          |
|-3\5-5-5-5-|-3\5-5-5-5-|-3-5-3-5-|-3\5-5-5-5-|          |
                                                         |
                                                         |
|----------|----------|----------|----------|            |
|----------|----------|----------|----------|            |
|-5\7777777|-77777777-|-77777777-|-77777777-|            |
|-5\7777777|-77777777-|-77777777-|-77777777-|            |    JAMES H.
|-3\5555555|-55555555-|-55555555-|-55555555-|            \     playes.
|----------|----------|----------|----------|             \   rhytm gtr.
                                                           >     &&&
                                                          /   MR.HAMMETT
|-----------|-----------|---------|-----------|          /       the
|-----------|-----------|---------|-----------|          |      solo
|-----------|-----------|---------|-----------|          |
|-5\7-7-7-7-|-5\7-7-7-7-|-5-7-5-7-|-5\7-7-7-7-|          |
|-5\7-7-7-7-|-5\7-7-7-7-|-5-7-5-7-|-5\7-7-7-7-|          |
|-3\5-5-5-5-|-3\5-5-5-5-|-3-5-3-5-|-3\5-5-5-5-|          |
                                                         |
                                                         |
|----------|----------|-----------|-----------|          |
|----------|----------|-----------|-----------|          |
|----------|-----2----|-----------|-----------|          |
|-----2----|---2---2--|-5\7-7-7-7-|-5\7-7-7-7-|          |
|---2---2--|-1--------|-5\7-7-7-7-|-5\7-7-7-7-|          |
|-1--------|----------|-3\5-5-5-5-|-3\5-5-5-5-|          |
                                                         |
                                                         |
|----------|----------|-----------|-----------|          |
|----------|----------|-----------|-----------|          |
|----------|-----2----|-----------|-----------|          |
|-----2----|---2---2--|-5\7-7-7-7-|-5\7-7-7-7-|          |
|---2---2--|-1--------|-5\7-7-7-7-|-5\7-7-7-7-|          |
|-1--------|----------|-3\5-5-5-5-|-3\5-5-5-5-|          |
                                                         |
|---------|-----------|                                  |
|---------|-----------|                                  |
|---------|-----------|                                  |
|-5-7-5-7-|-5\7-7-7-7-|                                  |
|-5-7-5-7-|-5\7-7-7-7-|                                  /
|-3-5-3-5-|-3\5-5-5-5-|                                 /

 Gtr1&2                                                 \
|----------|----------|----------|----------|            \
|----------|----------|----------|----------|            |
|-5\7777777|-77777777-|-77777777-|-77777777-|            |
|-5\7777777|-77777777-|-77777777-|-77777777-|            |
|-3\5555555|-55555555-|-55555555-|-55555555-|            |
|----------|----------|----------|----------|            |
                                                         |
                                                         |
|-----------|-----------|---------|-----------|          |
|-----------|-----------|---------|-----------|          |
|-----------|-----------|---------|-----------|          |
|-5\7-7-7-7-|-5\7-7-7-7-|-5-7-5-7-|-5\7-7-7-7-|          |
|-5\7-7-7-7-|-5\7-7-7-7-|-5-7-5-7-|-5\7-7-7-7-|          |
|-3\5-5-5-5-|-3\5-5-5-5-|-3-5-3-5-|-3\5-5-5-5-|          |
                                                         |
                                                         |
|----------|----------|----------|----------|            |
|----------|----------|----------|----------|            |
|-5\7777777|-77777777-|-77777777-|-77777777-|            |
|-5\7777777|-77777777-|-77777777-|-77777777-|            |
|-3\5555555|-55555555-|-55555555-|-55555555-|            |
|----------|----------|----------|----------|            \
                                                          \
                                                           >   4 Verse
|-----------|-----------|---------|-----------|           /
|-----------|-----------|---------|-----------|          /
|-----------|-----------|---------|-----------|          |
|-5\7-7-7-7-|-5\7-7-7-7-|-5-7-5-7-|-5\7-7-7-7-|          |
|-5\7-7-7-7-|-5\7-7-7-7-|-5-7-5-7-|-5\7-7-7-7-|          |
|-3\5-5-5-5-|-3\5-5-5-5-|-3-5-3-5-|-3\5-5-5-5-|          |
                                                         |
 Gtr1                                                    |
|----------|----------|-----------|-----------|          |
|----------|----------|-----------|-----------|          |
|----------|-----2----|-----------|-----------|          |
|-----2----|---2---2--|-5\7-7-7-7-|-5\7-7-7-7-|          |
|---2---2--|-1--------|-5\7-7-7-7-|-5\7-7-7-7-|          |
|-1--------|----------|-3\5-5-5-5-|-3\5-5-5-5-|          |
|          |          |           |           |          |
|Gtr2      |          |           |           |          |
|----------|-6--------|-----------|-----------|          |
|-----6----|---6------|-----------|-----------|          |
|---5---5--|-----3----|-----------|-----------|          |
|-3--------|-------3--|-----------|-----------|          |
|----------|----------|-----------|-----------|          |
|----------|----------|-----------|-----------|          |
                                                         |
                                                         |
 Gtr1                                                    |
|----------|----------|-----------|-----------|          |
|----------|----------|-----------|-----------|          |
|----------|-----2----|-----------|-----------|          |
|-----2----|---2---2--|-5\7-7-7-7-|-5\7-7-7-7-|          |
|---2---2--|-1--------|-5\7-7-7-7-|-5\7-7-7-7-|          |
|-1--------|----------|-3\5-5-5-5-|-3\5-5-5-5-|          |
|          |          |           |           |          |
|Gtr2      |          |           |           |          |
|----------|-6--------|-----------|-----------|          |
|-----6----|---6------|-----------|-----------|          |
|---5---5--|-----3----|-----------|-----------|          |
|-3--------|-------3--|-----------|-----------|          |
|----------|----------|-----------|-----------|          /
|----------|----------|-----------|-----------|         /

                    So fucking ...
|---------|---------|-----------------|----||
|---------|---------|-----------------|----||
|---------|---------|-----------------|----||
|-5-7-5-7-|-5-7-5-7-|-----------------|-7\-||
|-5-7-5-7-|-5-7-5-7-|-----------------|-7\-||
|-3-5-3-5-|-3-5-3-5-|-----------------|-5\-||.




lyrics from
http://ezinfo.ucs.indiana.edu/~lwagers/metallica/so_what

Other versions of So What

So whatChords

Almost there ...

Sign in to get your own page with links to favourite songs and more. You are just one click away...

Login with Facebook Login with Google