GuitarTabsExplorer icon
GuitarTabsExplorer icon

Log in

Songbook

  • Log in to add and see bookmarks

Last visited songs

  • No songs visited yet...
Seek And Destroy by Metallica

Solo tabs

Metallica - Seek & Destroy (Solo)
                    by digiti


|-------------------12---|
|------------12/-15------|
|------------------------|
|------------------------|
|------------------------|
|------------------------|


--15h12----12-15h12-17h12-15h12----12-15h12-17h12-|
--------12----------------------15----------------|
--------------------------------------------------|
--------------------------------------------------|
--------------------------------------------------|
--------------------------------------------------|

--15h12-----12------12----------|----------------------|------------------|
--------15------15------15b-----|----------15/---3-----|------------------|
--------------------------------|----------------------|------------------|
--------------------------------|----------------------|------------------|
--------------------------------|----------------------|------------------|
--------------------------------|----------------------|------------------|


--7---7-10h7----7-7---------------|-------------------------|------------------|
-------------10------10h7-10h7----|-------------------------|------------------|
-------------------------------9--|--7-----7--9r-9h7--------|------------------|
----------------------------------|-----9------------9b-----|------------------|
----------------------------------|-------------------------|------------------|
----------------------------------|-------------------------|------------------|


------------------|--17~-----------16--15--14------|--------------------------|
------------------|-------------15-------------15--|--14----------15b---------|
------------------|----------15--------------------|------16------------------|
------------------|--------------------------------|----------17--------------|
------------------|--------------------------------|--------------------------|
------------------|--------------------------------|--------------------------|


---------------------|--------------------20-20-|
----------16/3-------|--------------12/23-------|
---------------------|--------------------------|
---------------------|--------------------------|
---------------------|--------------------------|
---------------------|--------------------------|

--23-20-18-22-19-19-21-21-17-15-19-16-14-14-17-14-12-|
-----------------------------------------------------|
-----------------------------------------------------|
-----------------------------------------------------|
-----------------------------------------------------|
-----------------------------------------------------|


--16-12-11-14-12/11-9/7-10h7----7-10h7------|-----------------------------|
-----------------------------10--------10-7-|--10h7----------7------------|
--------------------------------------------|-------9--7--9-----9--9r-9h7-|
--------------------------------------------|-----------------------------|
--------------------------------------------|-----------------------------|
--------------------------------------------|-----------------------------|


------------------------|-----------------------------|
------------------------|-----------------------------|
--9--7-----7b-----------|-----------------------------|
--------9---------------|------------7--9h7----7h9-9--|
------------------------|-----5--5/9--------9---------|
------------------5--5--|--7--------------------------|


--------------------------|----------------------------|
--------------------------|-----------7--10h7----------|
--7--9--9r-9h7-9--7r------|--7--9--9b---------9--7-----|
-----------------------9--|-------------------------9--|
--------------------------|----------------------------|
--------------------------|----------------------------|


--------------------------------|------12------------------12--------------|
----------------------------12--|--15b-----15h12----12-15b-----15h12-12-15-|
--7--9r---9h-7--9b9/-0-9/14-----|----------------14------------------------|
--------------------------------|------------------------------------------|
--------------------------------|------------------------------------------|
--------------------------------|------------------------------------------|


------12----------------12------12--|
--15b-----15h12-15--15b-----15------|
------------------------------------|
------------------------------------|
------------------------------------|
------------------------------------|


--15h-12------------------------------------------|
----------15--12------12--15h-12------------------|
------------------14--------------14--12------12--|
------------------------------------------14------|
--------------------------------------------------|
--------------------------------------------------|


----------------------------------------|
----------------------------------------|
--14h-12--------------------------------|
----------14--12------------------------|
------------------14--12------------12--|
--------------------------15~---15------|


--------------------------------------------------|
--------------------------------------------------|
--------------------------------------12------12--|
--------------12------12--14--12--14------14------|
--14--12--14------14------------------------------|
--------------------------------------------------|


--------------------------------------12------12--|
--------------12------12--15--12--15------15------|
--14--12--14------14------------------------------|
--------------------------------------------------|
--------------------------------------------------|
--------------------------------------------------|


                         Pick slide
--15h-12--------------------------------------|------------------------------|
----------15--12/-11--12--15h-12--------------|------------------------------|
----------------------------------14--12/---9-|--9/8/7/6/5/4/3/2-------------|
----------------------------------------------|------------------------------|
----------------------------------------------|------------------------------|

Other versions of Seek And Destroy

Alternative guitar chords and tabs for Seek And Destroy by Metallica

VersionType
Seek and destroyIntro
Seek and destroyTabs
Seek and destroy (Ver. 2)Tabs
Seek and destroy ukuleleChords

[ Privacy | About us ]

Welcome to the guitar community

Why join and log in?
- Get songbook with favourite songs
- Get custom made front page
- Submit chords and tabs
- Submit guitar-cover videos
- Get a lot of thumbs up for your work

Songbook

Last visited songs

Site
Home
Search
Community
Submit chords

Video

No video for this page. Check out how you can submit guitar-cover videos here

Search tabs and chords

Browse by artist

A B C D E F G H I J K L M N O P Q R S T U V W X Y Z #


Menu

Search

Video

Bookmark

Login