Log in

One click and you are in

Login with Facebook Login with Google

Why sign up and log in

Guitar Tabs Explorer
Metallica bass tabs for Screaming suicide

Bass tabs

  • Difficulty: Intermediate
Key: E


NOTE: 5-string on the original song, this is adapted for 4 string. Enjoy!

🤘 Intro:

G|---------------------------------|---------------------------------|
D|---------------------------------|---------------------------------|
A|---------0-----------------------|---------2-----------------------|
E|-2-2---2-------------------------|-2-2---2-------------------------|

G|---------------------------------|------------------|
D|---------------------------------|------------------|
A|---------0-----------------------|---------2---3----|
E|-2-2---2-------------------------|-2-2---2----------|

G|---------------------------------|---------------------------------|
D|---------------------------------|---------------------------------|
A|---------0-----------------------|---------2-----------------------|
E|-2-2---2-------------------------|-2-2---2-------------------------|

G|---------------------------------|------------------|
D|---------------------------------|------------------|
A|---------0-----------------------|---------2---3----|
E|-2-2---2-------------------------|-2-2---2----------|

G|---------------------------------|---------------------------------|
D|---------------------------------|---------------------------------|
A|---------------------------2---0-|---------------2---0---2---------|
E|-2-------------------------------|---------------------------------|

G|---------------------------------|---------------------------------|---------------------------------|
D|---------------------------------|-4------4-2----------------------|---------------------------------|
A|---------------------------2---0-|------------4-3-2---0------------|---------------------------------|
E|---------------------------------|------------------------2---0----|-2-------------------------------|

G|---------------------------------|---------------------------------|---------------------------------|
D|---------------------------------|---------------------------------|---------------------------------|
A|---------------------------------|---------------------------------|-------------------0---2---3---3-|
E|---------------------------------|---------------------------------|---------------------------------|
Riff #1:

G|---------------------------------|---------------------------------|
D|---------------------------------|---------------------------------|
A|---------------------------------|---------------------------------|
E|-2-2-2-2-2-2-2-2-2-2-2-2-2-2-2-2-|-2-2-2-2-2-2-2-2-2-2-2-2-2-2-2-2-|

G|---------------------------------|---------------------------------|
D|---------------------------------|---------------------------------|
A|---------------------------------|-------------------0---2---3---3-|
E|-2-2-2-2-2-2-2-2-2-2-2-2-2-2-2-2-|-2-2-2-2-2-2-2-2-2---------------|

G|---------------------------------|---------------------------------|
D|---------------------------------|---------------------------------|
A|---------------------------------|---------------------------------|
E|-2-2-2-2-2-2-2-2-2-2-2-2-2-2-2-2-|-2-2-2-2-2-2-2-2-2-2-2-2-2-2-2-2-|

G|---------------------------------|---------------------------------|
D|---------------------------------|---------------------------------|
A|---------------------------------|-------------------0---2---3---3-|
E|-2-2-2-2-2-2-2-2-2-2-2-2-2-2-2-2-|-2-2-2-2-2-2-2-2-2---------------|


Verse #1:

G|---------------------------------|---------------------------------|
D|---------------------------------|---------------------------------|
A|---------------------------------|---------------------------7-7-7-|
E|-0h2-2-2-2-2-2-2-0h2-2-2-2-2-2-2-|-0h2---2-2/3---3-3/5---5-5-------|

G|---------------------------------|---------------------------------|
D|---------------------------------|---------------------------------|
A|---------------------------------|---------------------------7-7-7-|
E|-0h2-2-2-2-2-2-2-0h2-2-2-2-2-2-2-|-0h2---2-2/3---3-3/5---5-5-------|

G|---------------------------------|---------------------------------|
D|---------------------------------|---------------------------------|
A|---------------------------------|---------------------------7-7-7-|
E|-0h2-2-2-2-2-2-2-0h2-2-2-2-2-2-2-|-0h2---2-2/3---3-3/5---5-5-------|

G|---------------------------------|---------------------------------|
D|---------------------------------|---------------------------------|
A|---------------------------------|---------------------------7-7-7-|
E|-0h2-2-2-2-2-2-2-0h2-2-2-2-2-2-2-|-0h2---2-2/3---3-3/5---5-5-------|

G|---------------------------------|---------------------------------|
D|---------------------------------|---------------------------------|
A|-3/5-5-5-6-5-6-5-3/5-5-5-6-5-6-5-|-3/5-5-5-6-5-6-5-6---3---5-------|
E|---------------------------------|---------------------------------|

G|---------------------------------|---------------------------------|
D|---------------------------------|---------------------------------|
A|-3/5-5-5-6-5-6-5-3/5-5-5-6-5-6-5-|-3/5-5-5-6-5-6-5-6---3---5-------|
E|---------------------------------|---------------------------------|

🤘 Chorus:

G|---------------------------------|---------------------------------|
D|---------------------------------|---------------------------------|
A|-7\------------------------------|-7\------------------------------|
E|---------0-0-6---6-5----0-0---0--|---------0-0-6---6-5---0-6-5---0-|

G|---------------------------------|---------------------|
D|---------------------------------|---------------------|
A|-7\------------------------------|-7\------------------|
E|---------0-0-6---6-5----0-0---0--|---------0-0-6---6-5-|

G|---------------------------------|------------------------------------------|---------------|
D|---------------------------------|------------------------------------------|---------------|
A|---------------------------------|-0----------------------------------------|-0---2---3---3-|
E|---------------------------------|------------------------------------------|---------------|


Verse #2:

G|---------------------------------|---------------------------------|
D|---------------------------------|---------------------------------|
A|---------------------------------|---------------------------------|
E|-2-2-2-2-2-2-2-2-2-2-2-2-2-2-2-2-|-2-2-2-2-2-2-2-2-2-2-2-2-2-2-2-2-|

G|---------------------------------|---------------------------------|
D|---------------------------------|---------------------------------|
A|---------------------------------|-------------------0---2---3---3-|
E|-2-2-2-2-2-2-2-2-2-2-2-2-2-2-2-2-|-2-2-2-2-2-2-2-2-2---------------|

G|---------------------------------|---------------------------------|
D|---------------------------------|---------------------------------|
A|---------------------------------|---------------------------------|
E|-2-2-2-2-2-2-2-2-2-2-2-2-2-2-2-2-|-2-2-2-2-2-2-2-2-2-2-2-2-2-2-2-2-|

G|---------------------------------|---------------------------------|
D|---------------------------------|---------------------------------|
A|---------------------------------|-------------------0---2---3---3-|
E|-2-2-2-2-2-2-2-2-2-2-2-2-2-2-2-2-|-2-2-2-2-2-2-2-2-2---------------|

G|---------------------------------|---------------------------------|
D|---------------------------------|---------------------------------|
A|---------------------------------|---------------------------7-7-7-|
E|-0h2-2-2-2-2-2-2-0h2-2-2-2-2-2-2-|-0h2---2-2/3---3-3/5---5-5-------|

G|---------------------------------|---------------------------------|
D|---------------------------------|---------------------------------|
A|---------------------------------|---------------------------7-7-7-|
E|-0h2-2-2-2-2-2-2-0h2-2-2-2-2-2-2-|-0h2---2-2/3---3-3/5---5-5-------|

G|---------------------------------|---------------------------------|
D|---------------------------------|---------------------------------|
A|---------------------------------|---------------------------7-7-7-|
E|-0h2-2-2-2-2-2-2-0h2-2-2-2-2-2-2-|-0h2---2-2/3---3-3/5---5-5-------|

G|---------------------------------|---------------------------------|
D|---------------------------------|---------------------------------|
A|---------------------------------|---------------------------7-7-7-|
E|-0h2-2-2-2-2-2-2-0h2-2-2-2-2-2-2-|-0h2---2-2/3---3-3/5---5-5-------|

G|---------------------------------|---------------------------------|
D|---------------------------------|---------------------------------|
A|-3/5-5-5-6-5-6-5-3/5-5-5-6-5-6-5-|-3/5-5-5-6-5-6-5-6---3---5-------|
E|---------------------------------|---------------------------------|

G|---------------------------------|---------------------------------|
D|---------------------------------|---------------------------------|
A|-3/5-5-5-6-5-6-5-3/5-5-5-6-5-6-5-|-3/5-5-5-6-5-6-5-6---3---5-------|
E|---------------------------------|---------------------------------|

🤘 Chorus:

G|---------------------------------|---------------------------------|
D|---------------------------------|---------------------------------|
A|-7\------------------------------|-7\------------------------------|
E|---------0-0-6---6-5----0-0---0--|---------0-0-6---6-5---0-6-5---0-|

G|---------------------------------|---------------------|
D|---------------------------------|---------------------|
A|-7\------------------------------|-7\------------------|
E|---------0-0-6---6-5----0-0---0--|---------0-0-6---6-5-|

G|---------------------------------|------------------------------------------|---------------|
D|---------------------------------|------------------------------------------|---------------|
A|---------------------------------|-0----------------------------------------|-0---2---3---3-|
E|---------------------------------|------------------------------------------|---------------|

🤘 Solo:

G|---------------------------------|---------------------------------|
D|---------------------------------|---------------------------------|
A|---------------------------------|---------------------------------|
E|---------------------------------|---------------------------------|

G|---------------------------------|---------------------------------|
D|---------------------------------|---------------------------------|
A|---------------------------------|----------9-----9-9-9------9-----|
E|---------------------------------|---------------------------------|

G|---------------------------------|---------------------------------|
D|---------------------------------|---------------------------------|
A|-9---9-9-9-9-9-9-9-9-9-9-9-9-9-9-|-9---9-9-9-9-9-9-9-9-9-9-9-9-9-9-|
E|---------------------------------|---------------------------------|

G|---------------------------------|---------------------------------|
D|---------------------------------|---------------------------------|
A|-9---9-9-9-9-9-9-9-9-9-9-9-9-9-9-|-9---9-9-9-9-9-9-9-9-9-9-0-------|
E|---------------------------------|-----------------------------2---|

G|---------------------------------|---------------------------------|
D|---------------------------------|---------------------------------|
A|---------------------------------|---------------------------------|
E|-2---2-2-2-2-2-2-2-2-2-2-2-2-2-2-|-2---2-2-2-2-2-2-2-2-2-2-2-2-2-2-|

G|---------------------------------|---------------------------------|
D|---------------------------------|---------------------------------|
A|---------------------------------|---------------------------------|
E|-0h2-2-2-2-2-2-2-2-2-2-2-2-2-2-2-|-0h2-2-2-2-2-2-2-2-2-2-2-2-2-2-2-|

G|---------------------------------|---------------------------------|
D|---------------------------------|---------------------------------|
A|---------------------------------|---------------------------------|
E|-2---2-2-2-2-2-2-2-2-2-2-2-2-2-2-|-2---2-2-2-2-2-2-2-2-2-2-2-2-2-2-|

G|---------------------------------|---------------------------------|
D|---------------------------------|---------------------------------|
A|---------------------------------|-------------------------0---0---|
E|-0h2-2-2-2-2-2-2-2-2-2-2-2-2-2-2-|-0h2-2-2-2-2-2-2-2-2-2-2---------|

G|---------------------------------|---------------------------------|
D|---------------------------------|---------------------------------|
A|---------------------------------|-------------------------0---0---|
E|-2---2-2-2-2-2-2-2-2-2-2-2-2-2-2-|-2-2-2-2-2-2-2-2-2-2-2-2---------|

G|---------------------------------|---------------------------------|
D|---------------------------------|---------------------------------|
A|---------------------------------|---------------/-9-9-9-9-9-9-9-9-|
E|-2---2-2-2-2-2-2-2-2-2-2-2-2-2-2-|-2-2-2-2-2-2-2-------------------|


Riff #2:

G|---------------------------------|---------------------------------|
D|---------------------------------|---------------------------------|
A|---------------------------------|-----------0-2-----3-2----0------|
E|-0h2-2-2-2-2-2-2-0h2-2-2-2-2-2-2-|-0h2-2-2-2-----------------------|

G|---------------------------------|---------------------------------|
D|---------------------------------|---------------------------------|
A|---------------------------------|-----------0-2-----3-2----0------|
E|-0h2-2-2-2-2-2-2-0h2-2-2-2-2-2-2-|-0h2-2-2-2-----------------------|

G|---------------------------------|---------------------------------|
D|---------------------------------|---------------------------------|
A|---------------------------------|-----------0-2-----3-2----0------|
E|-0h2-2-2-2-2-2-2-0h2-2-2-2-2-2-2-|-0h2-2-2-2-----------------------|

G|---------------------------------|----------------|
D|---------------------------------|----------------|
A|-9~~~~~~~\-----------------------|-2-3------------|
E|-0h2-2-2-2-2-2-2-0h2-2-2-2-2-2-2-|-----2----------|

🤘 Bridge:

G|---------------------------------|---------------------------------|
D|---------------------------------|---------------------------------|
A|---------------------------------|---------------------------------|
E|-0h2-2-2-2-2-2-2-2-2-2-2-2-2-2-2-|-0h2-2-2-2-2-2-2-2-2-2-2-2-2-2-2-|

G|---------------------------------|---------------------------------|
D|---------------------------------|---------------------------------|
A|---------------------------------|---------------------------------|
E|-0h2-2-2-2-2-2-2-2-2-2-2-2-2-2-2-|-0h2-2-2-2-2-2-2-2-2-2-2-2-2-2-2-|

G|---------------------------------|---------------------------------|
D|---------------------------------|---------------------------------|
A|---------------------------------|---------------------------------|
E|-0h2-2-2-2-2-2-2-2-2-2-2-2-2-2-2-|-0h2-2-2-2-2-2-2-2-2-2-2-2-2-2-2-|

G|---------------------------------|---------------------------------|
D|---------------------------------|---------------------------------|
A|---------------------------------|---------------------------------|
E|-0h2-2-2-2-2-2-2-2-2-2-2-2-2-2-2-|-0h2-2-2-2-2-2-2-2-2-2-2-2-2-2-2-|

G|---------------------------------|---------------------------------|
D|---------------------------------|---------------------------------|
A|---------------------------------|---------------------------------|
E|-0h2-2-2-2-2-2-2-2-2-2-2-2-2-2-2-|-0h2-2-2-2-2-2-2-2-2-2-2-2-2-2-2-|

G|---------------------------------|---------------------------------|
D|---------------------------------|---------------------------------|
A|---------------------------------|---------------------------------|
E|-0h2-2-2-2-2-2-2-2-2-2-2-2-2-2-2-|-0h2-2-2-2-2-2-2-2-2-2-2-2-2-2-2-|

G|---------------------------------|---------------------------------|
D|---------------------------------|---------------------------------|
A|---------------------------------|---------------------------------|
E|-0h2-2-2-2-2-2-2-2-2-2-2-2-2-3---|-0h2-2-2-2-2-2-2-2-2-2-2-2-2-3---|

G|---------------------------------|---------------------------------|
D|---------------------------------|---------------------------------|
A|---------------------------------|---------------------------------|
E|-0h2-2-2-2-2-2-2-2-2-2-2-2-2-3---|-0h2-2-2-2-2-2-2-0-X-2---0-0-2---|

🤘 Chorus:

G|---------------------------------|---------------------------------|
D|---------------------------------|---------------------------------|
A|-7\------------------------------|-7\------------------------------|
E|---------0-0-6---6-5----0-0---0--|---------0-0-6---6-5---0-6-5---0-|

G|---------------------------------|---------------------|
D|---------------------------------|---------------------|
A|-7\------------------------------|-7\------------------|
E|---------0-0-6---6-5----0-0---0--|---------0-0-6---6-5-|

G|---------------------------------|-----------------|-------------------------------|---------------|
D|---------------------------------|-----------------|-------------------------------|---------------|
A|---------------------------------|-----------------|-0-----------------------------|-0---2---3---3-|
E|---------------------------------|-----------------|-------------------------------|---------------|

🤘 Outro:

G|---------------------------------|---------------------------------|
D|---------------------------------|---------------------------------|
A|---------------------------------|---------------------------------|
E|-0h2-2-2-2-2-2-2-2-2-2-2-2-2-2-2-|-2---2-2-2-2-2-2-2-2-2-2-2-2-2-2-|

G|---------------------------------|---------------------------------|
D|---------------------------------|-4-4-4-4-4-4-4-4-4---4----4------|
A|---------------------------------|---------------------------------|
E|-0h2-2-2-2-2-2-2-2-2-2-2-2-2-2-2-|---------------------------------|

G|---------------------------------|---------------------------------|
D|---------------------------------|---------------------------------|
A|---------------------------------|-------------------------0-------|
E|-0h2-2-2-2-2-2-2-2-2-2-2-2-2-2-2-|-0h2-2-2-2-2-2-2-2-2-2-2---------|

G|---------------------------------|---------------------------------|
D|---------------------------------|---------------------------------|
A|---------------------------------|-------------------------0-------|
E|-0h2-2-2-2-2-2-2-2-2-2-2-2-2-2-2-|-0h2-2-2-2-2-2-2-2-2-2-2---------|

G|---------------------------------|---------------------------------|
D|---------------------------------|---------------------------------|
A|---------------------------------|-------------------------0---0---|
E|-0h2-2-2-2-2-2-2-2-2-2-2-2-2-2-2-|-0h2-2-2-2-2-2-2-2-2-2-2---------|

G|---------------------------------|---------------------------------|
D|---------------------------------|---------------------------------|
A|---------------------------------|-------------------------0---0---|
E|-0h2-2-2-2-2-2-2-2-2-2-2-2-2-2-2-|-0h2-2-2-2-2-2-2-2-2-2-2---------|

G|---------------------------------|---------------------------------|
D|---------------------------------|---------------------------------|
A|---------------2---0---2---0-----|---------------2---0---2---------|
E|-0h2-2-2-2-2-2-------------------|-0h2-2-2-2-2-2-------------------|


G|---------------------------------|---------------------------------|
D|---------------------------------|---------------------------------|
A|---------------2---0---2---0-----|---------------2---0---2---------|
E|-0h2-2-2-2-2-2-------------------|-0h2-2-2-2-2-2-------------------|

G|---------------------------------|---------------------------------|
D|-4------4-2----------------------|---------------------------------|
A|------------4-3-2---0------------|---------------------------------|
E|------------------------2---0----|-2-------------------------------|

G|---------------------------------|---------------------------------|
D|---------------------------------|---------------------------------|
A|---------------------------------|---------------------------------|
E|---------------------------------|---------------------------------|


************************************

| x  Dead note
| h  Hammer-on
| /  Slide up
| \  Slide down
| ~  Vibrato

************************************
metallica screaming suicide music video
ⓘ Bass guitar tab for 'Screaming Suicide' by Metallica, a thrash metal band formed in 1981 from Los Angeles, USA. Metallica is known for their angry metal music.

Almost there ...

Sign in to get your own page with links to favourite songs and more. You are just one click away...

Login with Facebook Login with Google