GuitarTabsExplorer icon
GuitarTabsExplorer icon

Log in

Songbook

  • Log in to add and see bookmarks

Last visited songs

    No songs visited yet...

Ronnie Rising Medley by Metallica

Ronnie Rising Medley by Metallica

Tabs

Chord diagramA augmentedA light in the Black (Intro)

Chord diagramEb MajorEb||--------------------------------|
Chord diagramBb majorBb||--------------------------------|
Chord diagramGbGb||--------------------------------|
Chord diagramDbDb||--------------------------------|
Chord diagramAbAb||-----10-9-7----10-9-7----5h7----|
Chord diagramEb MajorEb||---0----------0-----------------| x4

Chord diagramEb MajorEb||------------------------------------|
Chord diagramBb majorBb||------------------------------------|
Chord diagramGbGb||------------------------------------|
Chord diagramDbDb||------------------------------------|
Chord diagramAbAb||----10--9---7---5-------------------|
Chord diagramEb MajorEb||--0---0---0---0---0-8-0-7-0-5--3-2-0|

Chord diagramEb MajorEb||--------------------------------------------------------------------------|
Chord diagramBb majorBb||--------------------------------------------------------------------------|
Chord diagramGbGb||-----5--------------------------------------------------------------------|
Chord diagramDbDb||-3---5--------------------------------------------------------------------|
Chord diagramAbAb||-3---3--------------------------------------------------------------------|
Chord diagramEb MajorEb||-1------------------------------------------------------------------------|
------------------------------------------------------------------------------|

Tarot Woman

Intro n' Verse
Chord diagramEb MajorEb||-------------------|-------------|
Chord diagramBb majorBb||-------------------|-------------|
Chord diagramGbGb||-----7--7--7-7-7---|-------------|
Chord diagramDbDb||-----7--7--7-7-7---|--10---5-----|
Chord diagramAbAb||-----5--5--5-5-5---|---8---3-----|
Chord diagramEb MajorEb||-------------------|-------------|


Chord diagramEb MajorEb||--------------------------------|
Chord diagramBb majorBb||--------------------------------|
Chord diagramGbGb||--------------------------------|
Chord diagramDbDb||--------------------------------|
Chord diagramAbAb||---3----3-----------------------|
Chord diagramEb MajorEb||-0-1--0-1--2--------------------|
   *  *

Chorus

--------------------------------------------------------------------------|
--------------------------------------------------------------------------|
--------------------------------------------------------------------------|
-5-----------------5---------3-----3--5------------3----------------------|
-3----------6------3---------1--5--1--3------6-----1----------------------|
------------4-------------------3------------4----------------------------|

Outro
Chord diagramEb MajorEb||--------------------------------|
Chord diagramBb majorBb||--------------------------------|
Chord diagramGbGb||----7---7-----------------------|
Chord diagramDbDb||----7---7-----------------------|
Chord diagramAbAb||----5---5-----------------------|
Chord diagramEb MajorEb||----5---5-----------------------|

----------------------------------------------------------------------------
Stargazer

Intro n' Verse

eb||--------------------------------|
Chord diagramBb majorBb||--------------------------------|
Chord diagramGbGb||--------------------------------|
Chord diagramDbDb||--------------------------------|
Chord diagramAbAb||-----5-6-7~~~-------5-6-7~~~----|
Chord diagramEb MajorEb||--0--------------0--------------|

--------------------------------|
--------------------------------|
--------------------------------|
--------------------5--4--------|
-----5-6-7~~~------------5~~~---|
--0--------------0--------------|

----------------------------------------|---------------------------|
----------------------------------------|---------------------------|
----------------------------------------|------------2b-2-0-2-0-----|
------------------5-4---4---------------|----5------------------2-0-|
-----5-6-7--5-6-7-----7---7-5---5-------|----5----------------------|
--0---------------------------7---7-7-6-|--5-3----------------------|

Chord diagramEb MajorEb||--------------------------------|
Chord diagramBb majorBb||--------------------------------|
Chord diagramGbGb||--------------------------------|
Chord diagramDbDb||---5--7-------------------------|
Chord diagramAbAb||---5--7-------------------------|
Chord diagramEb MajorEb||---3--5---------3-2-1-0---------|

Chord diagramEb MajorEb||--------------------------------------|
Chord diagramBb majorBb||--------------------------------------|
Chord diagramGbGb||----------2---5-----------------------|
Chord diagramDbDb||---4--5---2---5-----------------------|
Chord diagramAbAb||---4--5---0---3-----------------------|
Chord diagramEb MajorEb||---2--3-------------------------------|
Chord diagramEb MajorEb||----------------------------------------|
Chord diagramBb majorBb||----------------------------------------|
Chord diagramGbGb||---4/5-4--------------------------------|
Chord diagramDbDb||---4/5-4--------------------------------|
Chord diagramAbAb||---2/3-2--2-2---------------------------|
Chord diagramEb MajorEb||----------------------------------------|
       * *

Chord diagramEb MajorEb||----------------------------------------|
Chord diagramBb majorBb||----------------------------------------|
Chord diagramGbGb||------2--5----4---7-5-4--2--------------|
Chord diagramDbDb||---5--2--5----4---7-5-4--2--------------|
Chord diagramAbAb||---5--0--3----2---5-3-2--0-0-0-0-0------|
Chord diagramEb MajorEb||---3------------------------------------|
                * * * *

Chord diagramEb MajorEb||-------------------------------------------|
Chord diagramBb majorBb||-------------------------------------------|
Chord diagramGbGb||-------------------------------------------|
Chord diagramDbDb||-10--9--7--5-------------------------------|
Chord diagramAbAb||-10--9--7--5-------------------------------|
Chord diagramEb MajorEb||-8---7--5--3--3-3-3-3-3--------------------|
         * * * * *

Chord diagramEb MajorEb||---------------------------------------|
Chord diagramBb majorBb||---------------------------------------|
Chord diagramGbGb||----------5---7------------------------|
Chord diagramDbDb||--5-4--5--5---7------------------------|
Chord diagramAbAb||--5-4--5--3---5------------------------|
Chord diagramEb MajorEb||--3-2--3--3---5------------------------|

---------------------------------------------------------------------------

Kill the King

Guitar 1
Chord diagramEb MajorEb||----------------------------------------|
Chord diagramBb majorBb||----------------------------------------|
Chord diagramGbGb||--------5---8--10-----------------------|
Chord diagramDbDb||-5--3---5---8--10-----------------------|
Chord diagramAbAb||-5--3---3---6--8------------------------|
Chord diagramEb MajorEb||-3--1-------6--8------------------------|

Guitar 2
--------------------------------------|-------------------------------------|
--------------------------------------|-------------------------------------|
---15p12p0-15p12p0-15p12p0-15p12p0-15-|-14----------------------------------|
--------------------------------------|-------------------------------------|
--------------------------------------|-------------------------------------|
--------------------------------------|-------------------------------------|

Main Riff
----------------------------------------------------------------------------|
----------------------------------------------------------------------------|
------3-5-3x---3/5---5--3----------3-5-3x---3---3----3/5--------------------|
--5---3-5-3x-3-3/5---5--3-3-3--5---3-5-3x-3-3---3-3--3/5--------------------|
--5---1-3-1x-3-1/3---3--1-3-3--5---1-3-1x-3-1---1-3--1/3--------------------|
--3----------1------------1-1--3----------1-------1-------------------------|

Verse
----------------------------------------------------------------------------|
----------------------------------------------------------------------------|
------------------------------3/5-------------------------------------------|
-55555555-55555555-55555555-3-3/5-------------------------------------------|
-55555555-55555555-55555555-3-1/3-------------------------------------------|
-33333333-33333333-33333333-1-----------------------------------------------|

Chorus
Chord diagramEb MajorEb||-----------------------------------------|
Chord diagramBb majorBb||-----------------------------------------|
Chord diagramGbGb||------5--8--10---12----------------------|
Chord diagramDbDb||--3---5--8--10---10----------------------|
Chord diagramAbAb||--3---3--6--8----10----------------------|
Chord diagramEb MajorEb||--1--------------------------------------|

Chord diagramEb MajorEb||--------------------------------------------|
Chord diagramBb majorBb||--------------------------------------------|
Chord diagramGbGb||--3---7------8--10-12---------7-------------|
Chord diagramDbDb||--3---7--5---8--10-12---------7-------------|
Chord diagramAbAb||--1---5--5---6--8--10----5-5--5-------------|
Chord diagramEb MajorEb||---------3----------------------------------|
               * *
--------------------------------|
--------------------------------|
--------------------------------|
--------------------------------|
-12-13-12-10-12-10--------------|
-------------------13-12-10-----|

Outro

Chord diagramEb MajorEb||-------------------------------------------|
Chord diagramBb majorBb||-------------------------------------------|
Chord diagramGbGb||-3-----8-7----|--7-------------------------|
Chord diagramDbDb||-3-3---8-7----|--7-7---4-4-----------------|
Chord diagramAbAb||-1-3---6-5----|--5-7---4-4-----------------|
Chord diagramEb MajorEb||---1----------|----5---3-2-----------------|

--------------------------------------------------------------------------
Outro for the Medley(Chord diagramA augmentedA light in the Black Intro)(Faster)

Chord diagramEb MajorEb||--------------------------------|
Chord diagramBb majorBb||--------------------------------|
Chord diagramGbGb||--------------------------------|
Chord diagramDbDb||--------------------------------|
Chord diagramAbAb||-----10--9-7----10--9-7----5h7--|
Chord diagramEb MajorEb||---0----------0-----------------| x4

Chord diagramEb MajorEb||------------------------------------|
Chord diagramBb majorBb||------------------------------------|
Chord diagramGbGb||------------------------------------|
Chord diagramDbDb||------------------------------------|
Chord diagramAbAb||----10--9---7---5-------------------|
Chord diagramEb MajorEb||--0---0---0---0---0-8-0-7-0-5--3-2-0|

Chord diagramEb MajorEb||------------------------------------|
Chord diagramBb majorBb||------------------------------------|
Chord diagramGbGb||------------------------------------|
Chord diagramDbDb||------------------------------------|
Chord diagramAbAb||-----5h7--7-7-7----9--7-------------|
Chord diagramEb MajorEb||---0--------------------------------|x4

RIP Ronnie James Dio

Metallica fuckin nails this cover

[ Privacy | About us ]

Welcome to the guitar community

Why join and log in?
- Get songbook with favourite songs
- Get custom made front page
- Submit chords and tabs
- Submit guitar-cover videos
- Get a lot of thumbs up for your work

Songbook

Last visited songs

Site
Home
Search
Community
Submit chords

Video

No video for this page. Check out how you can submit guitar-cover videos here

Search tabs and chords

Browse by artist

A B C D E F G H I J K L M N O P Q R S T U V W X Y Z #


Menu

Search

Video

Bookmark

Login