Log in

One click and you are in

Login with Facebook Login with Google

Why sign up and log in

Guitar Tabs Explorer
Metallica tabs for One 1st solo

Guitar tabs

i dont know what the timeing is
                     but here it is

tuningEBGDAE

[-------------------------------------------------
[--------------3p2----3p2----3--3p2---------------
[----2--4b6r4------4------2----------4----11p9----
[-2h4------------------------------------------12-
[-------------------------------------------------
[-------------------------------------------------

[-------------------------------------------------
[--------------------------2h3-2------2-3p2-------
[--9s7--7p6p0-2-6p4p0-2s4--------2s4--------2s4---
[-------------------------------------------------
[-------------------------------------------------
[-------------------------------------------------

[-14-19-17p15-14-15-------------------------------
[-x-----------------15----------------------------
[-x---------------------7p6-7-9p7-9-11p9-11-11s12-
[-x-----------------------------------------------
[-------------------------------------------------
[-------------------------------------------------

[---------------------7----7-9-9s10-10s12-12-10-9-
[---------7-8-10---7-8----7-----------------------
[-12-11--7--------7------7------------------------
[-------9--------9------9-------------------------
[-------------------------------------------------
[-------------------------------------------------

[-7-9-9-10-7--------------------------------------
[-------------------------------------------------
[-------------------------------------------------
[-------------------------------------------------
[-------------------------------------------------
[-------------------------------------------------

Almost there ...

Sign in to get your own page with links to favourite songs and more. You are just one click away...

Login with Facebook Login with Google