Log in

One click and you are in

Login with Facebook Login with Google

Why sign up and log in

Guitar Tabs Explorer
Metallica tabs for Nothing else matters

Solo tabs

Standard tuning: A chord diagramE MajorE A chord diagramBB A chord diagramG+G A chord diagramD MajorD A chord diagramA augmentedA e

b = bend
r = release
~ = vibrato
 = slide
s = sustain
E-----------------------------------------------------------
B--15b(17)---15b(17)r---------------------------------------
D--14b(16)---14b(16)r--12~---12-11-12-11----11--------------
A----------------------------------------14----14--12-14----
A-----------------------------------------------------------
e-----------------------------------------------------------

E---------------------12----------12------------------------
B-------------------12-----------12-----15p12---12----------
G--12-14-12--14b(16)-------14b(16)------------15---15-14----
D-----------------------------------------------------------
A-----------------------------------------------------------
e-----------------------------------------------------------

E----------------------------------15-14-----15-14--1517-
B--------------------14-14-13-12~---------12----------------
G--14b(16)r-p12------14-14-13-12~---------------------------
D---------------14------------------------------------------
A-----------------------------------------------------------
e-----------------------------------------------------------

E-15-14h15p14-12----15-14-----------------------------------
B----------------12-------12------------15b(17)r------------
G-----------------------------12-14-12--14b(16)r--12--------
D-----------------------------------------------------14----
A-----------------------------------------------------------
e-----------------------------------------------------------

E---------------12---------------------------------------------------
B-------------12-----15--15b(17)r-12-15b(17)s-r--12-15-12--7-5-7-5s--
G------14b(16)-------------------------------------------------------
D--12----------------------------------------------------------------
A--------------------------------------------------------------------
e--------------------------------------------------------------------

Other versions of Nothing Else Matters

Nothing else mattersChords
Nothing else matters (Ver. 2)Chords
Nothing else matters (Ver. 3)Chords
Nothing else mattarsTabs
Nothing else mattersTabs
Nothing else matters (Ver. 2)Tabs
Nothing else matters (Ver. 3)Tabs
Nothing else matters (Ver. 4)Tabs
Nothing else matters acousticTabs
Nothing else matters intoTabs

Almost there ...

Sign in to get your own page with links to favourite songs and more. You are just one click away...

Login with Facebook Login with Google