Master Of Puppets  by Metallica

Master Of Puppets bass tab by Metallica (Ver. 3)

Bass tabs

Song: Master of Puppets
Artist: Metallica
Album: Master of Puppets (1986)
Bassist: Cliff Burton

Standard tuning (EADG)

🏷Legend:
r = rest
/ = slide up
\ = slide down
h = hammer on
s = 16th note (appears above bar)
t = 32nd note (appears above bar)
a = acciaccatura (appears above bar)


INTRO:
  3/4   s s
G |-------------|-------------|
D |-------------|-------------|
A |---------5r6r|-3---------\-|
E |-0-r---------|-------------|
  1 & 2 & 3 &  1 & 2 & 3 &

  4/4                     s s
G |-----------------|-----------------|-----------------|-----------------|
D |-----------------|-----------------|-----------------|-----------------|
A |-----------------|-----------------|---------5r4r3-\-|-r---------------|
E |-0-r-------------|-r-------------0-|-0-r-------------|---------------0-|
  1 & 2 & 3 & 4 &  1 & 2 & 3 & 4 &  1 & 2 & 3 & 4 &  1 & 2 & 3 & 4 &

      s s                 s s    ssssssssssssssss
G |-----------------|-----------------|-----------------|-----------------|
D |-----------------|-----------------|-----------------|-----------------|
A |---------5r4r3-\-|-r---------------|---------5r4r3---|-3333333333333333|
E |-0-r-------------|---------------0-|-0-r-------------|-----------------|
  1 & 2 & 3 & 4 &  1 & 2 & 3 & 4 &  1 & 2 & 3 & 4 &  1 & 2 & 3 & 4 &

               ssssssss              ssssssss
G |-----------------|-----------------|-----------------|-----------------|
D |-----------------|-----------------|-----------------|-----------------|
A |-----------------|----------\--\--\|-----------------|----------\--\--\|
E |-0-r-------------|-r-------32032032|-0-r-------------|-r-------32032032|
  1 & 2 & 3 & 4 &  1 & 2 & 3 & 4 &  1 & 2 & 3 & 4 &  1 & 2 & 3 & 4 &

  ssssssssssssssss ssssssssssssss  ssssssssssssssss ssssssssssssssss
G |-----------------|-----------------|-----------------|-----------------|
D |-----------------|-----------------|-----------------|-----------------|
A |---2-----------22|---2-----------2-|---2-----------22|---2------\--\--\|
E |-01-01101101101--|-01-01101101101--|-01-01101101101--|-01-0110132032032|
  1 & 2 & 3 & 4 &  1 & 2 & 3 & 4 &  1 & 2 & 3 & 4 &  1 & 2 & 3 & 4 &

                             6/4
  ssssssssssssssss ssssssssssssss  ssssssssssssssss ssssssssssssssssssssssss
G |-----------------|-----------------|-----------------|-------------------------|
D |-----------------|-----------------|-----------------|-------------------------|
A |---2-----------22|---2-----------2-|---2-----------22|---2------\--\--\-\--\--\|
E |-01-01101101101--|-01-01101101101--|-01-01101101101--|-01-011013203203232032032|
  1 & 2 & 3 & 4 &  1 & 2 & 3 & 4 &  1 & 2 & 3 & 4 &  1 & 2 & 3 & 4 & 5 & 6 &

  4/4
G |-----------------|
D |-----------------|
A |-----------------|
E |-0-r-----------7\|
  1 & 2 & 3 & 4 &


PRE-VERSE:
  4/4        7/8       4/4        7/8
   ssssssssssssss ssssssssssssss ssssssssssssssss ssssssssssssss
G |-----------------|---------------|-----------------|---------------|
D |-----------------|---------------|-----------------|---------------|
A |----------h---\-h|-----------h--h|----------h---\-h|-----------h--h|
E |-0-00000003506535|-00000000035035|-0000000003506535|-00000000035035|
  1 & 2 & 3 & 4 &  1 & 2 & 3 & 4  1 & 2 & 3 & 4 &  1 & 2 & 3 & 4


VERSE 1 (Repeat 1st staff x2):

  4/4        7/8       4/4        7/8
  ssssssssssssssss ssssssssssssss ssssssssssssssss ssssssssssssss
G |-----------------|---------------|-----------------|---------------|
D |-----------------|---------------|-----------------|---------------|
A |----------h---\-h|-----------h--h|----------h---\-h|-----------h--h|
E |-0000000003506535|-00000000035035|-0000000003506535|-00000000035035|
  1 & 2 & 3 & 4 &  1 & 2 & 3 & 4  1 & 2 & 3 & 4 &  1 & 2 & 3 & 4

 4/4        7/8      4/4        7/8       2/4
  ssssssssssssssss sssssssssssssss ssssssssssssssss ssssssssssssss ssssssss
G |-----------------|---------------|-----------------|---------------|---------|
D |-----------h--\-h|-----------h--h|-----------h--\-h|-----------h--h|---------|
A |----------02-3202|----------02-02|----------02-3202|----------02-02|-22222222|
E |-222222222--0----|-222222222--0--|-222222222--0----|-222222222--0--|---------|
  1 & 2 & 3 & 4 &  1 & 2 & 3 & 4  1 & 2 & 3 & 4 &  1 & 2 & 3 & 4  1 & 2 &


PRE-CHORUS:
  4/4      (x3)
   ss  ssss   ssss  ssss     ss  ssss   ssss  ss ss  s s   s s
G |-----------------|-----------------||-----------------|-----------------|-----------------|
D |-----------------|-----------------||-----------------|-----------------|-----------------|
A |-----5-7\--------|-------------6---||-----5-7\--------|---------976r6---|-----------------|
E |-0-00----00203--/|-77778-7-8888--8\||-0-00----00203--/|-77778-7------87\|-0r0r----1r1r----|
  1 & 2 & 3 & 4 &  1 & 2 & 3 & 4 &  1 & 2 & 3 & 4 &  1 & 2 & 3 & 4 &  1 & 2 & 3 & 4 &


CHORUS 1:
  3/4      4/4        3/4     4/4
   s sssssss  s sss  ss     sssssss   ss ss ssss
G |-------------|-----------------|-------------|-----------------|
D |-------------|-----------------|-------------|---7-7-7-7-7-7-7-|
A |-------------|-----------------|-3-3--0002000|-0----0---0---0-0|
E |-0-00-0002000|-3-33-3333-3-333-|-------------|-----------------|
  1 & 2 & 3 &  1 & 2 & 3 & 4 &  1 & 2 & 3 &  1 & 2 & 3 & 4 &

  5/4          3/4             4/4
     sssssss  ssss    sssssss  s s ss  s s   s s
G |--------------------h|-------------|-------------|-----------------|
D |-------------------02|-------------|-------------|-----------------|
A |-5-5--00030002-2-22--|---------5---|-3-33-33-333-|-----------------|
E |---------------------|-0-0--000-000|-------------|-0r0r----1r1r----|
  1 & 2 & 3 & 4 & 5 &  1 & 2 & 3 &  1 & 2 & 3 &  1 & 2 & 3 & 4 &

  3/4      4/4
   s sssssss  s sssssssssss s s   s s
G |-------------|-----------------|-----------------|
D |-------------|-----------------|-----------------|
A |-------------|-3-33-333332200--|-----------------|
E |-0-00-0002000|---------------33|-0r0r----1r1r----|
  1 & 2 & 3 &  1 & 2 & 3 & 4 &  1 & 2 & 3 & 4 &


PRE-VERSE:
                             6/4
  ssssssssssssssss ssssssssssssss  ssssssssssssssss ssssssssssssssssssssssss
G |-----------------|-----------------|-----------------|-------------------------|
D |-----------------|-----------------|-----------------|-------------------------|
A |---2-----------22|---2-----------2-|---2-----------22|---2------\--\--\-\--\--\|
E |-01-01101101101--|-01-01101101101--|-01-01101101101--|-01-011013203203232032032|
  1 & 2 & 3 & 4 &  1 & 2 & 3 & 4 &  1 & 2 & 3 & 4 &  1 & 2 & 3 & 4 & 5 & 6 &


VERSE 2:
  4/4        7/8       4/4        7/8
   ssssssssssssss ssssssssssssss ssssssssssssssss ssssssssssssss
G |-----------------|---------------|-----------------|---------------|
D |-----------------|---------------|-----------------|-----------h--h|
A |----------h---\-h|-----------h--h|----------h---\-h|----------57-57|
E |-0-00000003506535|-00000000035035|-0000000003506535|-000000000--0--|
  1 & 2 & 3 & 4 &  1 & 2 & 3 & 4  1 & 2 & 3 & 4 &  1 & 2 & 3 & 4

  4/4        7/8       4/4        7/8
   ssssssssssssss ssssssssssssss ssssssssssssssss ssssssssssssss
G |-----------------|---------------|-----------------|---------------|
D |-----------------|---------------|-----------------|---------------|
A |----------h---\-h|-----------h--h|----------h---\-h|-----------h--h|
E |-0000000003506535|-00000000035035|-0000000003506535|-00000000035035|
  1 & 2 & 3 & 4 &  1 & 2 & 3 & 4  1 & 2 & 3 & 4 &  1 & 2 & 3 & 4

 4/4        7/8       4/4        7/8       2/4
  ssssssssssssssss sssssssssssssss ssssssssssssssss ssssssssssssss ssssssss
G |-----------------|---------------|-----------------|---------------|---------|
D |-----------h--\-h|-----------h--h|-----------h--\-h|-----------h--h|---------|
A |----------02-3202|----------02-02|----------02-3202|----------02-02|-22222222|
E |-222222222--0----|-222222222--0--|-222222222--0----|-222222222--0--|---------|
  1 & 2 & 3 & 4 &  1 & 2 & 3 & 4  1 & 2 & 3 & 4 &  1 & 2 & 3 & 4  1 & 2 &


PRE-CHORUS:
  4/4     (x3)
   ss  ssss   ssss  ssss     ss  ssss   ssss  ss ss  s s   s s
G |-----------------|-----------------||-----------------|-----------------|-----------------|
D |-----------------|-----------------||-----------------|-----------------|-----------------|
A |-----5-7\--------|-------------6---||-----5-7\--------|---------976r6---|-----------------|
E |-0-00----00203--/|-77778-7-8888--8\||-0-00----00203--/|-77778-7------87r|-0r0r----1r1r----|
  1 & 2 & 3 & 4 &  1 & 2 & 3 & 4 &  1 & 2 & 3 & 4 &  1 & 2 & 3 & 4 &  1 & 2 & 3 & 4 &


CHORUS 2:
  3/4      4/4        3/4     4/4
   s sssssss  s sss  ss     sssssss   ss ss ssss
G |-------------|-----------------|-------------|-----------------|
D |-------------|-----------------|-------------|---7-7-7-7-7-7-7-|
A |-------------|-----------------|-3-3--0002000|-0----0---0---0-0|
E |-0-00-0002000|-3-33-3333-3-333-|-------------|-----------------|
  1 & 2 & 3 &  1 & 2 & 3 & 4 &  1 & 2 & 3 &  1 & 2 & 3 & 4 &

  5/4          3/4             4/4
     sssssss  ssss    sssssss  s s ss
G |--------------------h|-------------|-------------|-----------------|
D |-------------------02|-------------|-------------|-----------------|
A |-5-5--00030002-2-22--|---------5---|-3-33-33-333-|-----------------|
E |---------------------|-0-0--000-000|-------------|-0r0r----1r1r----|
  1 & 2 & 3 & 4 & 5 &  1 & 2 & 3 &  1 & 2 & 3 &  1 & 2 & 3 & 4 &

  3/4      4/4
   s sssssss  s sssssssssss
G |-------------|-----------------|-----------------|
D |-------------|-----------------|-----------------|
A |-------------|-3-33-333332200--|-----------------|
E |-0-00-0002000|---------------33|-0r0r----1r1r----|
  1 & 2 & 3 &  1 & 2 & 3 & 4 &  1 & 2 & 3 & 4 &


INTERLUDE (Starting w/ guitar):
  6/4            4/4        6/4
G |-------------------------|-----------------|-------------------------|
D |-------------------------|-----------------|-------------------------|
A |-------------------------|-----------------|-------------------------|
E |-r-----------------------|-r---------------|-r-----------------------|
  1 & 2 & 3 & 4 & 5 & 6 &  1 & 2 & 3 & 4 &  1 & 2 & 3 & 4 & 5 & 6 &

  6/4            4/4        6/4
G |-------------------------|-----------------|-------------------------|
D |-------------------------|-----------------|-------------------------|
A |-7-------5---------------|-3---------------|-0-------2------/6-------|
E |-------------------------|-----------------|-------------------------|
  1 & 2 & 3 & 4 & 5 & 6 &  1 & 2 & 3 & 4 &  1 & 2 & 3 & 4 & 5 & 6 &

  6/4            4/4        6/4
     s    sss     s   sss          ss  ssss
G |-------------------------|-----------------|-------------------------|
D |-------------------------|-----------------|-------------------------|
A |-7-----7r5-----555r5-0-5-|-3r3---333r3-0-3-|-0-----0-2-220-2/66660-6-|
E |---7-0-------------------|-----------------|-------------------------|
  1 & 2 & 3 & 4 & 5 & 6 &  1 & 2 & 3 & 4 &  1 & 2 & 3 & 4 & 5 & 6 &

  6/4            4/4        6/4
     s    sss     s   sss      ss   ss  ssss
G |-------------------------|-----------------|-------------------------|
D |-------------------------|-----------------|-------------------------|
A |-7-----7r5-----555r5-0-5-|-3r3---333r3-0-3-|-0-000-0-2-220-2/66660-6-|
E |---7-0-------------------|-----------------|-------------------------|
  1 & 2 & 3 & 4 & 5 & 6 &  1 & 2 & 3 & 4 &  1 & 2 & 3 & 4 & 5 & 6 &

  6/4            4/4        6/4
     s    sss  a      sss          ss  ssssssss
G |--------------------------|-----------------|-------------------------|
D |----------------------h---|-----------------|-------------------------|
A |-7-----7r5-----555r5-57-5-|-3-----333r3-0-3-|-0-----0-2-220-2/66660066|
E |---7-0--------------------|-----------------|-------------------------|
  1 & 2 & 3 & 4 & 5 & 6 &  1 & 2 & 3 & 4 &  1 & 2 & 3 & 4 & 5 & 6 &

  6/4            4/4        6/4
     s    sss  a      sss        sss    ssssssss
G |--------------------------|-----------------|-------------------------|
D |----------------------h---|-----------------|-------------------------|
A |-7-----7r5-----555r5-57-5-|-3-----333r3-0-3-|-0-----002r2-0-2/66660066|
E |---7-0--------------------|-----------------|-------------------------|
  1 & 2 & 3 & 4 & 5 & 6 &  1 & 2 & 3 & 4 &  1 & 2 & 3 & 4 & 5 & 6 &

  6/4            4/4        6/4
     s    sss   s  s   sss          ss  ss
G |-------------------------|-----------------|-------------------------|
D |-------------------------|-----------------|-------------------------|
A |-7-----7r5-----555r5-0-5\|-3r3---333r3-0-3-|-0-----0-2-220-2/666-0-6-|
E |---7-0-------------------|-----------------|-------------------------|
  1 & 2 & 3 & 4 & 5 & 6 &  1 & 2 & 3 & 4 &  1 & 2 & 3 & 4 & 5 & 6 &

  6/4            4/4        6/4
     s    sss     s   sss          ss  ssss
G |-------------------------|-----------------|-------------------------|
D |-------------------------|-----------------|-------------------------|
A |-7-----7r5-----555r5-0-5\|-3r3---333r3-0-3-|-0-----0-2-220-2/66660-6-|
E |---7-0-------------------|-----------------|-------------------------|
  1 & 2 & 3 & 4 & 5 & 6 &  1 & 2 & 3 & 4 &  1 & 2 & 3 & 4 & 5 & 6 &

(Repeat next staff x2):

  6/4            4/4        6/4
G |-------------------------|-----------------|-------------------------|
D |-------------------------|-----------------|-------------------------|
A |-------------------------|-----------------|-----------------6-6-6-6\|
E |-0-0-0-0-2-2-2-2-2-2-2-2-|-3-3-3-3-3-3-3-3-|-5-5-5-5-7-7-7-7---------|
  1 & 2 & 3 & 4 & 5 & 6 &  1 & 2 & 3 & 4 &  1 & 2 & 3 & 4 & 5 & 6 &

  4/4
G |-----------------|-----------------|
D |-----------------|-----------------|
A |-----------------|-----------------|
E |-0-0-0-0-0-0-0-0-|-0-0-0-0-0-0-0-0-|
  1 & 2 & 3 & 4 &  1 & 2 & 3 & 4 &


BRIDGE:
         (x6)
         ss             ss   ss    ss ss ss
G |-----------------|-----------------||-----------------|-----------------|
D |-----------------|-----------------||-----------------|-----------------|
A |---------------33|---------------3-||-----------------|-----------------|
E |-2-2-3-2-2-2-3---|-2-2-3-2-2-2-3---||-3-3--333--3-333-|-2-2-222-320-320-|
  1 & 2 & 3 & 4 &  1 & 2 & 3 & 4 &  1 & 2 & 3 & 4 &  1 & 2 & 3 & 4 &


GUITAR SOLO:
  4/4        7/8       4/4        7/8
   ssssssssssssss ssssssssssssss ssssssssssssssss ssssssssssssss
G |-----------------|---------------|-----------------|---------------|
D |-----------------|---------------|-----------------|-----------h--h|
A |----------h---\-h|-----------h--h|----------h---\-h|----------57-57|
E |-0-00000003506535|-00000000035035|-0000000003506535|-000000000--0--|
  1 & 2 & 3 & 4 &  1 & 2 & 3 & 4  1 & 2 & 3 & 4 &  1 & 2 & 3 & 4

  4/4        7/8       4/4        7/8
   ssssssssssssss ssssssssssssss ssssssssssssssss ssssssssssssss
G |-----------------|---------------|-----------------|---------------|
D |-----------------|---------------|-----------------|---------------|
A |----------h---\-h|-----------h--h|----------h---\-h|-----------h--h|
E |-0000000003506535|-00000000035035|-0000000003506535|-00000000035035|
  1 & 2 & 3 & 4 &  1 & 2 & 3 & 4  1 & 2 & 3 & 4 &  1 & 2 & 3 & 4

 4/4        7/8                        2/4
  ssssssssssssssss sssssssssssssss ssssssssssssssss ssssssssssssss ssssssss
G |-----------------|---------------|-----------------|---------------|---------|
D |-----------h--\-h|-----------h--h|-----------h--\-h|-----------h--h|---------|
A |----------02-3202|----------02-02|----------02-3202|----------02-02|-22222222|
E |-222222222--0----|-222222222--0--|-2-2222222--0----|-222222222--0--|---------|
  1 & 2 & 3 & 4 &  1 & 2 & 3 & 4  1 & 2 & 3 & 4 &  1 & 2 & 3 & 4  1 & 2 &


INTERLUDE 2:
  4/4      (x2)         2/4
  ssssssssssssssss ssssssssssssss   ssssssss
G |-----------------|-----------------||---------|
D |-----------------|-----------------||---------|
A |---------------22|---------------2-||---------|
E |-00100100100100--|-00100100100100--||-00000000|
  1 & 2 & 3 & 4 &  1 & 2 & 3 & 4 &  1 & 2 &

  4/4        2/4    4/4      (x2)
  ssssssssss  stt ssssssss  sssssssttssssssss ss  sttssssssss
G |----------h-------|---------||------------------|--h---------------|
D |-------0245-------|---------||----------------02|-45---------------|
A |----023----3-3-333|-32353202||-------------023--|---3---33332353202|
E |-023--------------|---------||-000000000023-----|------------------|
  1 & 2 & 3 & 4 &  1 & 2 &  1 & 2 & 3 & 4 &  1 & 2 & 3 & 4 &

  sssssssttssssssss ss   ttssssssss     ttssssssss
G |------------------|--h---------------|------------------|
D |----------------02|-45---------------|------------------|
A |-------------023--|---3----3332353202|--------3332353202|
E |-000000000023-----|------------------|-0----------------|
  1 & 2 & 3 & 4 &  1 & 2 & 3 & 4 &  1 & 2 & 3 & 4 &


PRE-VERSE:
                             6/4
               ssssssss              ssssssssssssssss
G |-----------------|-----------------|-----------------|-------------------------|
D |-----------------|-----------------|-----------------|-------------------------|
A |-----------------|----------\--\--\|-----------------|----------\--\--\-\--\--\|
E |-0-r-------------|-r-------32032032|-0-r-------------|-r-------3203203232032032|
  1 & 2 & 3 & 4 &  1 & 2 & 3 & 4 &  1 & 2 & 3 & 4 &  1 & 2 & 3 & 4 & 5 & 6 &


VERSE 2:
  4/4        7/8       4/4        7/8
   ssssssssssssss ssssssssssssss ssssssssssssssss ssssssssssssss
G |-----------------|---------------|-----------------|---------------|
D |-----------------|---------------|-----------------|-----------h--h|
A |----------h---\-h|-----------h--h|----------h---\-h|----------57-57|
E |-0000000003506535|-00000000035035|-0000000003506535|-000000000--0--|
  1 & 2 & 3 & 4 &  1 & 2 & 3 & 4  1 & 2 & 3 & 4 &  1 & 2 & 3 & 4

  4/4        7/8       4/4        7/8
   ssssssssssssss ssssssssssssss ssssssssssssssss ssssssssssssss
G |-----------------|---------------|-----------------|---------------|
D |-----------------|---------------|-----------------|---------------|
A |----------h---\-h|-----------h--h|----------h---\-h|-----------h--h|
E |-0-00000003506535|-00000000035035|-0000000003506535|-00000000035035|
  1 & 2 & 3 & 4 &  1 & 2 & 3 & 4  1 & 2 & 3 & 4 &  1 & 2 & 3 & 4

 4/4        7/8       4/4        7/8       2/4
  ssssssssssssssss sssssssssssssss ssssssssssssssss ssssssssssssss ssssssss
G |-----------------|---------------|-----------------|---------------|---------|
D |-----------h--\-h|-----------h--h|-----------h--\-h|-----------h--h|---------|
A |----------02-3202|----------02-02|----------02-3202|----------02-02|-22222222|
E |-222222222--0----|-222222222--0--|-222222222--0----|-222222222--0--|---------|
  1 & 2 & 3 & 4 &  1 & 2 & 3 & 4  1 & 2 & 3 & 4 &  1 & 2 & 3 & 4  1 & 2 &


PRE-CHORUS:
  4/4      (x3)
   ss  ssss   ssss  ssss     ss  ssss   ssss  ss ss  s s   s s
G |-----------------|-----------------||-----------------|-----------------|-----------------|
D |-----------------|-----------------||-----------------|-----------------|-----------------|
A |-----5-7\--------|-------------6---||-----5-7\--------|---------976r6---|-----------------|
E |-0-00----00203--/|-77778-7-8888--8\||-0-00----00203--/|-77778-7------87\|-0r0r----1r1r----|
  1 & 2 & 3 & 4 &  1 & 2 & 3 & 4 &  1 & 2 & 3 & 4 &  1 & 2 & 3 & 4 &  1 & 2 & 3 & 4 &


CHORUS 3:
  3/4      4/4        3/4     4/4
   s sssssss  s sss  ss     sssssss  s sss  ssss
G |-------------|-----------------|-------------|-----------------|
D |-------------|-----------------|-------------|-----------------|
A |-------------|-----------------|-3-3--0002000|-0-00-0000-0-0000|
E |-0-00-0002000|-3-33-3333-3-333-|-------------|-----------------|
  1 & 2 & 3 &  1 & 2 & 3 & 4 &  1 & 2 & 3 &  1 & 2 & 3 & 4 &

  5/4          3/4             4/4
     sssssss  ssss    sssssss  s s ssss s s   s s
G |--------------------h|-------------|-------------|-----------------|
D |-------------------02|-------------|-------------|-----------------|
A |-5-5--00030002-2--2--|---------5---|-3-33-33-3333|-----------------|
E |---------------------|-0-0--000-000|-------------|-0r0r----1r1r----|
  1 & 2 & 3 & 4 & 5 &  1 & 2 & 3 &  1 & 2 & 3 &  1 & 2 & 3 & 4 &

  3/4      4/4
   s sssssss  s sssssssssss s s   s s
G |-------------|-----------------|-----------------|
D |-------------|-----------------|-----------------|
A |-------------|-3-33-333332200--|-----------------|
E |-0-00-0002000|---------------33|-0r0r----1r1r----|
  1 & 2 & 3 &  1 & 2 & 3 & 4 &  1 & 2 & 3 & 4 &


OUTRO:

  4/4        7/8       4/4        7/8
   ssssssssssssss ssssssssssssss ssssssssssssssss ssssssssssssss
G |-----------------|---------------|-----------------|---------------|
D |-----------------|---------------|-----------------|-----------h--h|
A |----------h---\-h|-----------h--h|----------h---\-h|----------57-57|
E |-0-00000003506535|-00000000035035|-0000000003506535|-000000000--0--|
  1 & 2 & 3 & 4 &  1 & 2 & 3 & 4  1 & 2 & 3 & 4 &  1 & 2 & 3 & 4

  4/4        7/8       4/4        7/8
   ssssssssssssss ssssssssssssss ssssssssssssssss ssssssssssssss
G |-----------------|---------------|-----------------|---------------|
D |-----------------|---------------|-----------------|---------------|
A |----------h---\-h|-----------h--h|----------h---\-h|-----------h--h|
E |-0-00000003506535|-00000000035035|-0000000003506535|-00000000035035|
  1 & 2 & 3 & 4 &  1 & 2 & 3 & 4  1 & 2 & 3 & 4 &  1 & 2 & 3 & 4

  4/4   ssssssss (Let ring)
G |-----------------|-----------------|
D |-----------------|-----------------|
A |----------\--\--\|-----------------|
E |-r-------32032032|-0---------------|
  1 & 2 & 3 & 4 &  1 & 2 & 3 & 4 &

Follow along with the song:


Or, follow along with the isolated bass track:

Other versions of Master Of Puppets

Alternative guitar chords and tabs for Master Of Puppets by Metallica

Find guitar tabs and chords

A B C D E F G H I J K L M N O P Q R S T U V W X Y Z #