Log in

One click and you are in

Login with Facebook Login with Google

Why sign up and log in

Guitar Tabs Explorer
Metallica tabs for Master of puppets (Ver. 2)

Guitar tabs with lyrics

  • Difficulty: Advanced
Key: A chord diagramE MajorE

Symbols:
        p  - pull off
        h  - hammer on
        /   - slide        b - bend
       vib - vibrato
        x  - rake
Intro:
----------------------|
----------------------|
-9--------------------|
-9---12--11--10-------|
-7---12--11--10-------|
-0---10--9---8--------|



Repeat x4
-----------------------|---------------|-----------------------------------|
-----------------------|---------------|-----------------------------------|
-----------------------|---------------|-----------------------------------|
-----------------------|--12--11--10---|-----------------------------------|
-----------------------|--12--11--10---|-----------------------------------|
-0-0--12--0-0--11---0-0|--10--9---8----|--0-0-7-0-0-6-0-0-5-0-4-0-3-0-2-0--|


Repeat x2
------------------------------------------------------------------|
------------------------------------------------------------------|
------------------------------------------------------------------|
------------------------------------------------------------------|
-----2-----3-----4-----3-----2-2-----2-----3-----5/4---5/4---5/4--|
-0-1---0-1---0-1---0-1---0-1-----0-1---0-1-----0-3/2-0-3/2-0-3/2--|



Riff:
-----------------------------------------------------------------|
-----------------------------------------------------------------|
-----------------------------------------------------------------|
------------------------------------------------------------4----|
-----2-----3-----4-----3-----2-2-----2-----3-----4-----3----2----|
-0-1---0-1---0-1---0-1---0-1-----0-1---0-1---0-1---0-1----0------|

------------------------------------------------------------------|
------------------------------------------------------------------|
------------------------------------------------------------------|
------------------------------------------------------------------|
-----2-----3-----4-----3-----2-2-----2-----3-----5/4---5/4---5/4--|
-0-1---0-1---0-1---0-1---0-1-----0-1---0-1-----0-3/2-0-3/2-0-3/2--|

------------------------------------------------------------------|
------------------------------------------------------------------|
------------------------------------------------------------------|
-------------------------------------------------------------4----|
-----2-----3-----4-----3-----2-2-----2-----3-----4-----3-----2----|
-0-1---0-1---0-1---0-1---0-1-----0-1---0-1---0-1---0-1----0-------|

----------------------------------------------|
----------------------------------------------|
----------------------------------------------|
----------------------------------------------|
-----2-----3-----4-----3-----2-2-----2-----3--|
-0-1---0-1---0-1---0-1---0-1-----0-1---0-1----|

----------------------------------------|
----------------------------------------|
----------------------------------------|
-------------------------------------2--|
--5/4---5/4---5/4---5/4---5/4---5/4--2--|
--3/2-0-3/2-0-3/2-0-3/2-0-3/2-0-3/2--0--|


----------------------------------------|
----------------------------------------|
----------------------------------------|
------8------8------8------8------8~~~--|
----7------7------7------7------7-------|
--0------0------0------0------0---------|


1st Verse, 6 repeats (fast!)
------------------------------------------------------------|
------------------------------------------------------------|
------------------------------------------------------------|
------------------------------------------------------------|
------------------5/7--8/7--5/7-------------------5/7--5/7--|
-0-0-0-0-0-0-0-0--3/5--6/5--3/5--0-0-0-0-0-0-0-0--3/5--3/5--|


1st part of verse1 lyrics:

-End of passion play, crumbling away
-I’m your source of self-destruction
-Veins that pump with fear, sucking darkest clear
-Leading on your death’s construction


2nd part of verse1
------------------------------------------------------------|
------------------------------------------------------------|
------------------------------------------------------------|
------------------4-4---5/4-4-4-------------------4----4----|
------------------0-2---3/2-0-2-------------------0h2--0h2--|
-2-2-2-2-2-2-2-2----------------2-2-2-2-2-2-2-2-------------|
 ’ ’ ’ ’ ’ ’ ’ ’                ’ ’ ’ ’ ’ ’ ’ ’


2nd part of verse1 lyrics:
-Taste me, you will see
-More is all you need
-You’re dedicated to
-How I’m killing you


Intro to pre-chorus:
------------------|
------------------|
-4-4-4-4-4-4-4-4--|
-4-4-4-4-4-4-4-4--|
-2-2-2-2-2-2-2-2--|
------------------|


Pre-chorus x3
---------------------------------------------------------------------|
---------------------------------------------------------------------|
-9---------7--9-----------------------------------------------8------|
-9---------7--9--------9--------------------10---9------------8---9--|
-7---------5--7---7-9-----10-9h10-----------10---9------------6---9--|
-0----0-0---------------------------8-8-8-8--8---7---8-8-8-8------7--|


-----------------------------------------------------------------------------|
-----------------------------------------------------------------------------|
-9---------7--9--------------------------------------------------------------|
-9---------7--9--------9--------------------10---9-----7--5--4------4--------|
-7---------5--7---7-9-----10-9h10-----------10---9-----9--7--6------6--7--6--|
-0----0-0---------------------------8-8-8-8--8---7---------------------8--7--|


Pre-chorus lyrics:
-Come crawling faster
-Obey your master
-Your life burns faster
-Obey your master


Start Chorus
--------|--------|
--------|--------|
--------|--------|
--2--2--|--3--3--|
--2--2--|--3--3--|
--0--0--|--1--1--|


-Master!
-Master!


Chorus Part 1
--------------------------------------------------|
--------------------------------------------------|
--------------------------------------------------|
----------------------------5~-------4-------2~---|
--2~-----------------5~-----3~--0-0--2--0-0--0~---|
--0~--0-0--2p0--0-0--3~---------------------------|


--------------------------------------------------|
--------------------------------------------------|
--------------------------------------------------|
--7~-------5-------4~-------9~-------7-------5~---|
--5~-------3-------2~-------7~-------5-------3~---|
------3-3-----3-3---------------0-0-----0-0-------|


Chorus Part1 Lyrics:
-Master of puppets, I’m pulling your strings
-Twisting your mind and smashing your dreams
-Blinded by me, you can’t see a thing
-Just call my name, ’cause I’ll hear you scream


Chorus Part 2
--------|--------|-------------------------|--------|--------|
--------|--------|-------------------------|--------|--------|
--------|--------|-------------------------|--------|--------|
--2--2--|--3--3--|---------------------5~--|--2--2--|--3--3--|
--2--2--|--3--3--|--2~-----------------3~--|--2--2--|--3--3--|
--0--0--|--1--1--|--0~--0-0--2p0--0-0------|--0--0--|--1--1--|
                        ’ ’       ’ ’


Chorus Part 2 lyrics:
-Master!
-Master!
-Just call my name, ’cause I’ll hear you scream
-Master!
-Master!


------------------------------------------------------------------|
------------------------------------------------------------------|
------------------------------------------------------------------|
-------------------------------------------------------------4----|
-----2-----3-----4-----3-----2-2-----2-----3-----4-----3-----2----|
-0-1---0-1---0-1---0-1---0-1-----0-1---0-1---0-1---0-1----0-------|


----------------------------------------------|
----------------------------------------------|
----------------------------------------------|
----------------------------------------------|
-----2-----3-----4-----3-----2-2-----2-----3--|
-0-1---0-1---0-1---0-1---0-1-----0-1---0-1----|

--------------------------------------|
--------------------------------------|
--------------------------------------|
--------------------------------------|
--5/4---5/4---5/4---5/4---5/4---5/4---|
--3/2-0-3/2-0-3/2-0-3/2-0-3/2-0-3/2---|


2nd Verse x6 (Fast part)
------------------------------------------------------------|
------------------------------------------------------------|
------------------------------------------------------------|
------------------------------------------------------------|
------------------5/7--8/7--5/7-------------------5/7--5/7--|
-0-0-0-0-0-0-0-0--3/5--6/5--3/5--0-0-0-0-0-0-0-0--3/5--3/5--|


Verse 2 part 1 lyrics:

-Needlework the way, never you betray
-Life of death becoming clearer
-Pain monopoly, ritual misery
-Chop your breakfast on a mirror


Verse 2 x2 (fast part)
------------------------------------------------------------|
------------------------------------------------------------|
------------------------------------------------------------|
------------------4-4---5/4-4-4-------------------4----4----|
------------------0-2---3/2-0-2-------------------0h2--0h2--|
-2-2-2-2-2-2-2-2----------------2-2-2-2-2-2-2-2-------------|


Verse 2 part 2 lyrics:

-Taste me, you will see
-More is all you need
-You’re dedicated to
-How I’m killing you


Pre-intro  x2
------------------|
------------------|
-4-4-4-4-4-4-4-4--|
-4-4-4-4-4-4-4-4--|
-2-2-2-2-2-2-2-2--|
------------------|
 ’ ’ ’ ’ ’ ’ ’ ’


Pre chorus 2 x3
---------------------------------------------------------------------|
---------------------------------------------------------------------|
-9---------7--9-----------------------------------------------8------|
-9---------7--9--------9--------------------10---9------------8---9--|
-7---------5--7---7-9-----10-9h10-----------10---9------------6---9--|
-0----0-0---------------------------8-8-8-8--8---7---8-8-8-8------7--|


-----------------------------------------------------------------------------|
-----------------------------------------------------------------------------|
-9---------7--9--------------------------------------------------------------|
-9---------7--9--------9--------------------10---9-----7--5--4------4--------|
-7---------5--7---7-9-----10-9h10-----------10---9-----9--7--6------6--7--6--|
-0----0-0---------------------------8-8-8-8--8---7---------------------8--7--|

Lyrics pre-chorus 2:

-Come crawling faster
-Obey your master
-Your life burns faster
-Obey your master


Pre-chorus 2:
--------|--------|
--------|--------|
--------|--------|
--2--2--|--3--3--|
--2--2--|--3--3--|
--0--0--|--1--1--|

-Master!
-Master!



Chorus 2, 1st part
--------------------------------------------------|
--------------------------------------------------|
--------------------------------------------------|
----------------------------5~-------4-------2~---|
--2~-----------------5~-----3~--0-0--2--0-0--0~---|
--0~--0-0--2p0--0-0--3~---------------------------|
      ’

--------------------------------------------------|
--------------------------------------------------|
--------------------------------------------------|
--7~-------5-------4~-------9~-------7-------5~---|
--5~-------3-------2~-------7~-------5-------3~---|
------3-3-----3-3---------------0-0-----0-0-------|
      ’ ’     ’ ’           ’ ’     ’ ’


Chorus 2 1st part lyrics:
-Master of puppets, I’m pulling your strings
-Twisting your mind and smashing your dreams
-Blinded by me, you can’t see a thing
-Just call my name, ’cause I’ll hear you scream


Chorus (Second Part)
--------|--------|-------------------------|--------|--------|
--------|--------|-------------------------|--------|--------|
--------|--------|-------------------------|--------|--------|
--2--2--|--3--3--|---------------------5~--|--2--2--|--3--3--|
--2--2--|--3--3--|--2~-----------------3~--|--2--2--|--3--3--|
--0--0--|--1--1--|--0~--0-0--2p0--0-0------|--0--0--|--1--1--|
                        ’ ’       ’ ’


2nd part of chorus 2 lyrics:
-Master!
-Master!
-Just call my name, ’cause I’ll hear you scream
-Master!
-Master!


Bridge (James plays this twice)
----------------------0h2p0-------3---------------------------------------------------|
----------------3------------3------------3---3-------0-------0----------0----------0-|
-------0-----2-----2------------2-------0---0---0-----------2---------2----------2----|
-----2----0----------------------------------------2--------------------------1-------|
---2---------------------------------3-------------------0-------0-2--------2---------|
-0------------------------------------------------------------------------------------|

1st solo (by Kirk)
-----19/22--19--------20---17-------------------20---17-------|
-20--------------20-------------19---19-19-19-------------19--|
--------------------------------------------------------------|
--------------------------------------------------------------|
--------------------------------------------------------------|
--------------------------------------------------------------|


-19---15-------------------19---15--------17---15h17p15-14-------|
-----------17---17-17-17-------------17----------------------17--|
-----------------------------------------------------------------|
-----------------------------------------------------------------|
-----------------------------------------------------------------|
-----------------------------------------------------------------|


-----------14-------14---16---17---19--|
-16---17--------17---------------------|
---------------------------------------|
---------------------------------------|
---------------------------------------|
---------------------------------------|

James Solo
---------------14-15---14-15-17-15-14-19-15-12h15p12----------------|
-17---------17---------------------------------------13-----15b-15b-|
--------------------------------------------------------------------|
--------------------------------------------------------------------|
--------------------------------------------------------------------|
--------------------------------------------------------------------|

-15-14------15-14-------------------------------------------------|
-------12---------12h15p12-------------15b------------------------|
--------------------------------12-14--14b--14b---12----12--------|
-----------------------------------------------------14-----12----|
------------------------------------------------------------------|
------------------------------------------------------------------|

----------------------------------------------------------------------------|
----------------------------------------------------------------------------|
-12----14-12---11--------14---12---11h12p11---------------------------------|
--------------------12----------------------10------------9-10--------9-10--|
-------------------------------------------------------12-------------------|
----------------------------------------------------------------------------|

-----------------------------------15---14--11h12p11-----------/19--|
-------------------------12--------------------------12---10--------|
-------------9--11--12-------12-------------------------------------|
-12--10--12---------------------------------------------------------|
--------------------------------------------------------------------|
--------------------------------------------------------------------|

(solo,kirk):
-----19/22--19--------20---17-------------------20---17-------|
-20--------------20-------------19---19-19-19-------------19--|
--------------------------------------------------------------|
--------------------------------------------------------------|
--------------------------------------------------------------|
--------------------------------------------------------------|

-19---15-------------------19---15--------17---15h17p15-14-------|
-----------17---17-17-17-------------17----------------------17--|
-----------------------------------------------------------------|
-----------------------------------------------------------------|
-----------------------------------------------------------------|
-----------------------------------------------------------------|


-----------14-------14---16---17---19--|
-16---17--------17---------------------|
---------------------------------------|
---------------------------------------|
---------------------------------------|
---------------------------------------|

(James plays this part with distortion) x2
----------------------0h2p0-------3---------------------------------------------------|
----------------3------------3------------3---3-------0-------0----------0----------0-|
-------0-----2-----2------------2-------0---0---0-----------2---------2----------2----|
-----2----0----------------------------------------2--------------------------1-------|
---2---------------------------------3-------------------0-------0-2--------2---------|
-0------------------------------------------------------------------------------------|


1st part.
-----------------------------------|
-----------------------------------|
-4-4-4-4-4-4-4-4--4-4-4-4-4-4-4-4--|
-2-2-2-2-2-2-2-2--2-2-2-2-2-2-2-2--|
-2-2-2-2-2-2-2-2--2-2-2-2-2-2-2-2--|
-0-0-0-0-0-0-0-0--0-0-0-0-0-0-0-0--|


2nd part x6.
-------------------------------------|
-------------------------------------|
-------------------------------------|
-----------------------------------6-|
--4-4-5-4-4-4-5-4-4--4-4-5-4-4-4-5-4-|
--2-2-3-2-2-2-3------2-2-3-2-2-2-3---|


-Master, master
-Where’s the dreams that I’ve been after?
-Master, master
-You promised only lies
-Laughter, laughter
-All I hear and see is laughter
-Laughter, laughter
-Laughing at my cries


pre-solo
-------------------|
-------------------|
-------------------|
--5~~~----4~~~-----|
--5~~~----4~~~-----|
--3~~~----2~~~-----|


-Fix Me!


Kirk’s Solo (fast!)
-17p12----------12-17p12----------12-17p12----------12-15p12----------12--|
-------13-12-13----------13-12-13----------13-12-13----------13-12-13-----|
--------------------------------------------------------------------------|
--------------------------------------------------------------------------|
--------------------------------------------------------------------------|
--------------------------------------------------------------------------|


-17p12----------12-17p12----------12-17p12-------12-12-15p12----|
-------13-13-12----------13-12-13----------13-12-------------13-|
----------------------------------------------------------------|
----------------------------------------------------------------|
----------------------------------------------------------------|
----------------------------------------------------------------|

-----19-19-17-17-17-17-15-15-15-14-14-14-14-17-17-17-15-15-15-14--|
-/17--------------------------------------------------------------|
------------------------------------------------------------------|
------------------------------------------------------------------|
------------------------------------------------------------------|
------------------------------------------------------------------|

-14-14-14-14---------------------------------17h19------------------|
-------------15---17b--17b---------17p15p14---------15p14-----------|
-----------------------------------------------------------16-14-==-|
--------------------------------------------------------------------|
--------------------------------------------------------------------|
--------------------------------------------------------------------|


---------------------------------------------------------------------|
------------------------------------/15--13--12------13--12----------|
-2b-4--0--2-0h2----------------------------------14----------14--12--|
-----------------4--2---2-h4-----------------------------------------|
---------------------------------------------------------------------|
---------------------------------------------------------------------|

-----------------------------------------------------------|
-------------12----12-12-12-12-12-12-15-13-12-15-13-12-13--|
-11--12--14------------------------------------------------|
-----------------------------------------------------------|
-----------------------------------------------------------|
-----------------------------------------------------------|

-12----------12-------------14-------14-------15-15--------|
----15-15-13----15-13h15-15----17-15----15-17-------17/19--|
-----------------------------------------------------------|
-----------------------------------------------------------|
-----------------------------------------------------------|
-----------------------------------------------------------|

-17-------19-17-------17----------19-17-------17----------19-17--------|
----20-19-------19-19----21-19-19-------19-19----21-19-19-------19-19--|
-----------------------------------------------------------------------|
-----------------------------------------------------------------------|
-----------------------------------------------------------------------|
-----------------------------------------------------------------------|

-17-------------19-17-------------14--14------14------------14--|
----21b-19b-19b-------19b-19b-17b--------17b------17b-17b-------|
----------------------------------------------------------------|
----------------------------------------------------------------|
----------------------------------------------------------------|
----------------------------------------------------------------|

-19-p14------19-p14--14----------14------14------14-14-14------14-14--|
---------17b---------17b-----17b-----17b-----17b-----------17b--------|
----------------------------------------------------------------------|
----------------------------------------------------------------------|
----------------------------------------------------------------------|
----------------------------------------------------------------------|

-----15b-----15b-----15b-----15b-----17b-----17b-----18b-----18b--|
-18b-----18b-----18b-----18b-----20b-----20b-----21b-----21b------|
------------------------------------------------------------------|
------------------------------------------------------------------|
------------------------------------------------------------------|
------------------------------------------------------------------|

-----19b-----19b-22b-----/////-------|
-22b-----22b-------------------------------|
-------------------------------------------|
-------------------------------------------|
-------------------------------------------|
-------------------------------------------|


post-solo x2
----------------------------------------------------------------|
----------------------------------------------------------------|
----------------------------------------------------------------|
-----3-----3-----3-----3-------------3-----3-----3-----3-----4--|
-----3-----3-----3-----3-----2-2-----3-----3-----3-----3-----2--|
-0-0-1-0-0-1-0-0-1-0-0-1-0-0-----0-0-1-0-0-1-0-0-1-0-0-1-0-0----|


After solo
------------------------------------------------------------------|
------------------------------------------------------------------|
------------------------------------------------------------------|
------------------------------0-2-4-5------------------0----------|
------------------------0-2-3---------3------3-3-3-2-3---3-2------|
-0-0-0-0-0-0-0-0--0-2-3--------------------------------------3-2--|


Both guitars plays this part:
-------------------------------------------------------------------------|
-------------------------------------------------------------------------|
----------------------------------------2-4------------------------------|
-------------------------------0-4-2/5--4-5-2------2-2-2-0-2-4-2-0-------|
-------------------------0-2-3--------------3------3-3-3-2-3-5-3-2-3-2---|
-0-0-0-0-0-0-0-0-0-0-2-3-------------------------------------------3-2---|

------------------------------------------------------------------------|
---------------------------------------------5~~------------------------|
----------------------------------------2-4--5~~------------------------|
-------------------------------0-4-2/5--4-5--5~~------------------------|
-------------------------0-2-3---------------3~~---3-3-3-2-3-5-3-2------|
-0-0-0-0-0-0-0-0-0-0-2-3-------------------------------------------3-2--|


-------------------------------------|
-------------------------------------|
-4~~--------------------2------------|
-2~~------------5-5-5-4-----5-4-2-4--|
-2~~------------3-3-3-2-3-5-3-2------|
-0~~----------------------------3-2--|


------------------------------------------------------------------|
------------------------------------------------------------------|
------------------------------------------------------------------|
------------------------------------------------------------------|
-----2-----3-----4-----3-----2-2-----2-----3-----5/4---5/4---5/4--|
-0-1---0-1---0-1---0-1---0-1-----0-1---0-1-----0-3/2-0-3/2-0-3/2--|


----------------------------------------------|
----------------------------------------------|
----------------------------------------------|
----------------------------------------------|
-----2-----3-----4-----3-----2-2-----2-----3--|
-0-1---0-1---0-1---0-1---0-1-----0-1---0-1----|


--------------------------------------|
--------------------------------------|
--------------------------------------|
--------------------------------------|
--5/4---5/4---5/4---5/4---5/4---5/4---|
--3/2-0-3/2-0-3/2-0-3/2-0-3/2-0-3/2---|


Verse 3 (fast part) x6
------------------------------------------------------------|
------------------------------------------------------------|
------------------------------------------------------------|
------------------------------------------------------------|
------------------5/7--8/7--5/7-------------------5/7--5/7--|
-0-0-0-0-0-0-0-0--3/5--6/5--3/5--0-0-0-0-0-0-0-0--3/5--3/5--|


Verse 3 part 1 lyrics:
-Hell is worth all that, natural habitat
-Just a rhyme without a reason
-Never-ending maze, drift on numbered days
-Now your life is out of season


Verse 3 2nd part x2
------------------------------------------------------------|
------------------------------------------------------------|
------------------------------------------------------------|
------------------4-4---5/4-4-4-------------------4----4----|
------------------0-2---3/2-0-2-------------------0h2--0h2--|
-2-2-2-2-2-2-2-2----------------2-2-2-2-2-2-2-2-------------|


Verse 3 part 2 lyrics:
-I will occupy
-I will help you die
-I will run through you
-Now I rule you, too


Enter pre-chorus 3
------------------|
------------------|
-4-4-4-4-4-4-4-4--|
-4-4-4-4-4-4-4-4--|
-2-2-2-2-2-2-2-2--|
------------------|


Pre chorus 3 x3
---------------------------------------------------------------------|
---------------------------------------------------------------------|
-9---------7--9-----------------------------------------------8------|
-9---------7--9--------9--------------------10---9------------8---9--|
-7---------5--7---7-9-----10-9h10-----------10---9------------6---9--|
-0----0-0---------------------------8-8-8-8--8---7---8-8-8-8------7--|


-----------------------------------------------------------------------------|
-----------------------------------------------------------------------------|
-9---------7--9--------------------------------------------------------------|
-9---------7--9--------9--------------------10---9-----7--5--4------4--------|
-7---------5--7---7-9-----10-9h10-----------10---9-----9--7--6------6--7--6--|
-0----0-0---------------------------8-8-8-8--8---7---------------------8--7--|
      ’ ’         ’ ’               ’ ’ ’ ’            ’  ’  ’      ’  ’  ’


Pre-chorus 3 lyrics:
-Come crawling faster
-Obey your master
-Your life burns faster
-Obey your master


Pre chorus 3
--------|--------|
--------|--------|
--------|--------|
--2--2--|--3--3--|
--2--2--|--3--3--|
--0--0--|--1--1--|

-Master!
-Master!



Chorus 3 part 1
--------------------------------------------------|
--------------------------------------------------|
--------------------------------------------------|
----------------------------5~-------4-------2~---|
--2~-----------------5~-----3~--0-0--2--0-0--0~---|
--0~--0-0--2p0--0-0--3~---------------------------|


--------------------------------------------------|
--------------------------------------------------|
--------------------------------------------------|
--7~-------5-------4~-------9~-------7-------5~---|
--5~-------3-------2~-------7~-------5-------3~---|
------3-3-----3-3---------------0-0-----0-0-------|


Chorus 3 part 1 lyrics:
-Master of puppets, I’m pulling your strings
-Twisting your mind and smashing your dreams
-Blinded by me, you can’t see a thing
-Just call my name, ’cause I’ll hear you scream


Chorus 3 part 2
--------|--------|-------------------------|--------|--------|
--------|--------|-------------------------|--------|--------|
--------|--------|-------------------------|--------|--------|
--2--2--|--3--3--|---------------------5~--|--2--2--|--3--3--|
--2--2--|--3--3--|--2~-----------------3~--|--2--2--|--3--3--|
--0--0--|--1--1--|--0~--0-0--2p0--0-0------|--0--0--|--1--1--|
                        ’ ’       ’ ’


Chorus 3 part 2 lyrics:
-Master!
-Master!
-Just call my name,’cause I’ll hear you scream
-Master!
-Master!


Outro:
------------------------------------------------------------|
------------------------------------------------------------|
------------------------------------------------------------|
-2-------------------------------2--------------------------|
-2----------------5/7--8/7--5/7--2----------------5/7--5/7--|
-0-0-0-0-0-0-0-0--3/5--6/5--3/5--0-0-0-0-0-0-0-0--3/5--3/5--|


End:
----------------------------------|---------|
----------------------------------|---------|
----------------------------------|--4~~~~--|
----------------------------------|--2~~~~--|
-----------------5/4---5/4---5/4--|--2~~~~--|
-----------------3/2-0-3/2-0-3/2--|--0~~~~--|
ⓘ This is the 2nd version of guitar tab for 'Master Of Puppets' by Metallica, a thrash metal band formed in 1981 from Los Angeles, USA. Metallica is known for their angry metal music.

Other versions of Master Of Puppets

Master of puppetsTabs
Master of puppets (Ver. 3)Tabs
Master of puppets (Ver. 4)Tabs
Master of puppets (Ver. 5)Tabs
Master of puppets (Ver. 6)Tabs
Master of puppets soloTabs

Almost there ...

Sign in to get your own page with links to favourite songs and more. You are just one click away...

Login with Facebook Login with Google