Log in

One click and you are in

Login with Facebook Login with Google

Why sign up and log in

Guitar Tabs Explorer
Metallica bass tabs for Master of puppets (Ver. 2)

Bass tabs with lyrics

Master of Puppets - Bass


212 BPM

   Q  H.       Q  Q  H
G||--------------------|---------------------|
D||--------------------|---------------------|
A||--------------------|--5----4----3--------|
E||--0-----------------|---------------------|
 H     Q  Q    W
----------------------|-------------------|
----------------------|-------------------|
--L\------------------|-------------------|
------------0---------|-------------------|


 W          H.      Q
-------------------|--------------------|
-------------------|--------------------|
-------------------|--------------------|
-------------------|---------------0----|


 Q  H.       Q  Q  H
--------------------|----------------------|
--------------------|----------------------|
--------------------|--5----4----3\--------|
--0-----------------|----------------------|


 W          H.      Q
-------------------|--------------------|
-------------------|--------------------|
-------------------|--------------------|
-------------------|---------------0----|

 Q  H.       Q  Q  H
--------------------|----------------------|
--------------------|----------------------|
--------------------|--5----4----3\--------|
--0-----------------|----------------------|


 W          H.      Q
-------------------|--------------------|
-------------------|--------------------|
-------------------|--------------------|
-------------------|---------------0----|


 Q  H.       Q  Q  H
--------------------|---------------------|
--------------------|---------------------|
--------------------|--5----4----3--------|
--0-----------------|---------------------|


 E E E E E E E E   E E E E E E E E
--------------------------|--------------------------|
--------------------------|--------------------------|
--L--3--3--3--3--3--3--3--|--3--3--3--3--3--3--3--3--|
--------------------------|--------------------------|


 Q  H.       W
--------------------|-------------------|
--------------------|-------------------|
--------------------|-------------------|
--0-----------------|-------------------|


 W          E  E E E  E E E  E
-------------------|-----------------------------|
-------------------|-----------------------------|
-------------------|-----------------------------|
-------------------|--3S--2--0--3S--2--0--3S--2--|


 Q  H.       W
--------------------|-------------------|
--------------------|-------------------|
--------------------|-------------------|
--0-----------------|-------------------|


 W          E  E E E  E E E  E
-------------------|-----------------------------|
-------------------|-----------------------------|
-------------------|-----------------------------|
-------------------|--3S--2--0--3S--2--0--3S--2--|


 E E E E E E E E   E E E E E E E E
--------------------------|--------------------------|
--------------------------|--------------------------|
--------2-----------------|--------------------2--2--|
--0--1-----0--1--1--0--1--|--1--0--1--1--0--1--------|


 E E E E E E E E   E E E E E E Q
--------------------------|-------------------------|
--------------------------|-------------------------|
--------2-----------------|--------------------2----|
--0--1-----0--1--1--0--1--|--1--0--1--1--0--1-------|


 E E E E E E E E   E E E E E E E E
--------------------------|--------------------------|
--------------------------|--------------------------|
--------2-----------------|--------------------2--2--|
--0--1-----0--1--1--0--1--|--1--0--1--1--0--1--------|


 E E E E E E E E   E  E E E  E E E  E
--------------------------|-----------------------------|
--------------------------|-----------------------------|
--------2-----------------|-----------------------------|
--0--1-----0--1--1--0--1--|--3S--2--0--3S--2--0--3S--2--|


 E E E E E E E E   E E E E E E E E
--------------------------|--------------------------|
--------------------------|--------------------------|
--------2-----------------|--------------------2--2--|
--0--1-----0--1--1--0--1--|--1--0--1--1--0--1--------|


 E E E E E E E E   E E E E E E Q
--------------------------|-------------------------|
--------------------------|-------------------------|
--------2-----------------|--------------------2----|
--0--1-----0--1--1--0--1--|--1--0--1--1--0--1-------|


 E E E E E E E E   E E E E E E E E
--------------------------|--------------------------|
--------------------------|--------------------------|
--------2-----------------|--------------------2--2--|
--0--1-----0--1--1--0--1--|--1--0--1--1--0--1--------|


 E E E E E E E E   E  E E E  E E E  E
--------------------------|-----------------------------|
--------------------------|-----------------------------|
--------2-----------------|-----------------------------|
--0--1-----0--1--1--0--1--|--3S--2--0--3S--2--0--3S--2--|


 E  E E E  E E E  E   Q  H.
-----------------------------|--------------------|
-----------------------------|--------------------|
-----------------------------|--------------------|
--3S--2--0--3S--2--0--3S--2--|--0-----------------|


 H.      Q    Q  E E E E E E
---------------------|-------------------------|
---------------------|-------------------------|
---------------------|-------------------------|
---------------7S----|--0----0--0--0--0--0--0--|


 E E  E  E  E  E E E   E E E E E E E E
------------------------------|--------------------------|
------------------------------|--------------------------|
------------------------------|--------------------------|
--0--3h--5--(0)--6p--5--3--5--|--0--0--0--0--0--0--0--0--|


 E E  E  E  E  E   E E E E E E E E
------------------------|--------------------------|
------------------------|--------------------------|
------------------------|--------------------------|
--0--3h--5--(0)--3h--5--|--0--0--0--0--0--0--0--0--|


 E E  E  E  E  E E E   E E E E E E E E
------------------------------|--------------------------|
------------------------------|--------------------------|
------------------------------|--------------------------|
--0--3h--5--(0)--6p--5--3--5--|--0--0--0--0--0--0--0--0--|


 E E  E  E  E  E   E E E E E E E E
------------------------|--------------------------|
------------------------|--------------------------|
------------------------|--------------------------|
--0--3h--5--(0)--3h--5--|--0--0--0--0--0--0--0--0--|


 E E  E  E  E  E E E   E E E E E E E E
------------------------------|--------------------------|
------------------------------|--------------------------|
------------------------------|--------------------------|
--0--3h--5--(0)--6p--5--3--5--|--0--0--0--0--0--0--0--0--|


 E E  E  E  E  E   E E E E E E E E
------------------------|--------------------------|
------------------------|--------------------------|
------------------------|--------------------------|
--0--3h--5--(0)--3h--5--|--0--0--0--0--0--0--0--0--|


 E E  E  E  E  E E E   E E E E E E E E
------------------------------|--------------------------|
------------------------------|--------------------------|
------------------------------|--------------------------|
--0--3h--5--(0)--6p--5--3--5--|--0--0--0--0--0--0--0--0--|


 E E  E  E  E  E   E E E E E E E E
------------------------|--------------------------|
------------------------|--------------------------|
------------------------|--------------------------|
--0--3h--5--(0)--3h--5--|--0--0--0--0--0--0--0--0--|


 E E  E  E  E  E E E   E E E E E E E E
------------------------------|--------------------------|
------------------------------|--------------------------|
------------------------------|--------------------------|
--0--3h--5--(0)--6p--5--3--5--|--0--0--0--0--0--0--0--0--|


 E E  E  E  E  E   E E E E E E E E
------------------------|--------------------------|
------------------------|--------------------------|
------------------------|--------------------------|
--0--3h--5--(0)--3h--5--|--0--0--0--0--0--0--0--0--|


 E E  E  E  E  E E E   E E E E E E E E
------------------------------|--------------------------|
------------------------------|--------------------------|
------------------------------|--------------------------|
--0--3h--5--(0)--6p--5--3--5--|--0--0--0--0--0--0--0--0--|


 E E  E  E  E  E   E E E E E E E E
------------------------|--------------------------|
------------------------|--------------------------|
------------------------|--------------------------|
--0--3h--5--(0)--3h--5--|--2--2--2--2--2--2--2--2--|


 E E  E  E  E  E E E   E E E E E E E E
------------------------------|--------------------------|
------------------------------|--------------------------|
------------------------------|--------------------------|
--2--5h--7--(0)--8p--7--5--7--|--2--2--2--2--2--2--2--2--|


 E E  E  E  E  E   E E E E E E E E
------------------------|--------------------------|
------------------------|--------------------------|
------------------------|--------------------------|
--2--5h--7--(0)--5h--7--|--2--2--2--2--2--2--2--2--|


 E E  E  E  E  E E E   E E E E E E E E
------------------------------|--------------------------|
------------------------------|--------------------------|
------------------------------|--------------------------|
--2--5h--7--(0)--8p--7--5--7--|--2--2--2--2--2--2--2--2--|


 E E  E  E  E  E   E E E E E E E E
------------------------|--------------------------|
------------------------|--------------------------|
------------------------|--------------------------|
--2--5h--7--(0)--5h--7--|--7--7--7--7--7--7--7--7--|


 Q  E E Q  Q    E E E E H
-----------------------|-----------------------|
-----------------------|-----------------------|
-------------5----7----|-----------------------|
--0----0--0------------|--0--0--2--0--3--------|


 E E E E Q  Q    E E E E Q  Q
------------------------|------------------------|
------------------------|--------------1---------|
--3--3--3--3--3----2----|--3--3--3--3-------2----|
------------------------|------------------------|


 Q  E E Q  Q    E E E E H
-----------------------|-----------------------|
-----------------------|-----------------------|
-------------5----7----|-----------------------|
--0----0--0------------|--0--0--2--0--3--------|


 E E E E Q  Q    E E E E Q  Q
------------------------|------------------------|
------------------------|--------------1---------|
--3--3--3--3--3----2----|--3--3--3--3-------2----|
------------------------|------------------------|


 Q  E E Q  Q    E E E E H
-----------------------|-----------------------|
-----------------------|-----------------------|
-------------5----7----|-----------------------|
--0----0--0------------|--0--0--2--0--3--------|


 E E E E Q  Q    E E E E Q  Q
------------------------|------------------------|
------------------------|--------------1---------|
--3--3--3--3--3----2----|--3--3--3--3-------2----|
------------------------|------------------------|


 Q  E E Q  Q    E E E E H
-----------------------|-----------------------|
-----------------------|-----------------------|
-------------5----7----|-----------------------|
--0----0--0------------|--0--0--2--0--3--------|


 E E E E Q  Q    E E Q  E E Q
------------------------|------------------------|
------------------------|--4--2--1----1----------|
--3--3--3--3--3----2----|----------------3--2----|
------------------------|------------------------|


 Q  Q  Q  Q    Q  Q  Q  Q
----------------------|----------------------|
----------------------|----------------------|
----------------------|----------------------|
--0----0--------------|--1----1--------------|


 Q  E Q  E E E   E E E E
------------------------|--------------|
------------------------|--------------|
------------------------|--------------|
--0----0--0----0--0--0--|--2--0--0--0--|


 Q  E Q  E E E   Q  Q  E E Q
------------------------|-----------------------|
------------------------|-----------------------|
------------------------|-----------------------|
--3----3--3----3--3--3--|--3----3----3--3--3----|


 Q  Q.   E E E   E E E E
-----------------------|--------------|
-----------------------|--------------|
--3----3------0--0--0--|--2--0--0--0--|
-----------------------|--------------|


 Q  Q  E E Q    E E Q  E E E E
-----------------------|-------------------------|
-------7----7-----7----|--7-----7----7-----7-----|
--0------------0-------|-----0----------0-----0--|
-----------------------|-------------------------|


 Q  Q.   E E E   E E E E
-----------------------|--------------|
-----------------------|--------------|
--5----5------0--0--0--|--3--0--0--0--|
-----------------------|--------------|


 Q  Q  E E E  E   Q  Q.   E E E
-------------------------|-----------------------|
-------------------------|-----------------------|
--2----2----2--2--5h--7--|-------7---------------|
-------------------------|--0----0------0--0--0--|


 E E E E   Q  E Q  E Q    E E Q
--------------|-----------------------|-------------|
--------------|-----------------------|-------------|
--5-----------|--3----3--3----3--3----|--3--3--3----|
-----0--0--0--|-----------------------|-------------|


 Q  Q  H      Q  Q  H
---------------------|---------------------|
---------------------|---------------------|
---------------------|---------------------|
--0----0-------------|--1----1-------------|


 Q  E Q  E E E   E E E E
------------------------|--------------|
------------------------|--------------|
------------------------|--------------|
--0----0--0----0--0--0--|--3--0--0--0--|


 Q  E Q  E E E   E E E E E E E E
------------------------|--------------------------|
------------------------|--------------------------|
--3----3--3----3--3--3--|--3--3--2--2--0--0--------|
------------------------|--------------------3--3--|


 Q  Q  H      Q  Q  H
---------------------|---------------------|
---------------------|---------------------|
---------------------|---------------------|
--0----0-------------|--1----1-------------|


 E E E E E E E E   E E E E E E E E
--------------------------|--------------------------|
--------------------------|--------------------------|
--------2-----------------|--------------------2--2--|
--0--1-----0--1--1--0--1--|--1--0--1--1--0--1--------|


 E E E E E E E E   E E E E E E Q
--------------------------|-------------------------|
--------------------------|-------------------------|
--------2-----------------|--------------------2----|
--0--1-----0--1--1--0--1--|--1--0--1--1--0--1-------|


 E E E E E E E E   E E E E E E E E
--------------------------|--------------------------|
--------------------------|--------------------------|
--------2-----------------|--------------------2--2--|
--0--1-----0--1--1--0--1--|--1--0--1--1--0--1--------|


 E E E E E E E E   E  E E E  E E E  E
--------------------------|-----------------------------|
--------------------------|-----------------------------|
--------2-----------------|-----------------------------|
--0--1-----0--1--1--0--1--|--3S--2--0--3S--2--0--3S--2--|


 E  E E E  E E E  E   Q  E E E E E E
-----------------------------|-------------------------|
-----------------------------|-------------------------|
-----------------------------|-------------------------|
--3S--2--0--3S--2--0--3S--2--|--0----0--0--0--0--0--0--|


 E E  E  E  E  E E E   E E E E E E E E
------------------------------|--------------------------|
------------------------------|--------------------------|
------------------------------|--------------------------|
--0--3h--5--(0)--6p--5--3--5--|--0--0--0--0--0--0--0--0--|


 E E  E  E  E  E   E E E E E E E E
------------------------|--------------------------|
------------------------|--------------------------|
------------------------|--------------------------|
--0--3h--5--(0)--3h--5--|--0--0--0--0--0--0--0--0--|


 E E  E  E  E  E E E   E E E E E E E E
------------------------------|--------------------------|
------------------------------|--------------------------|
------------------------------|--------------------------|
--0--3h--5--(0)--6p--5--3--5--|--0--0--0--0--0--0--0--0--|


 E E  E  E  E  E   E E E E E E E E
------------------------|--------------------------|
------------------------|--------------------------|
-----5h--7-------5h--7--|--------------------------|
--0---------(0)---------|--0--0--0--0--0--0--0--0--|


 E E  E  E  E  E E E   E E E E E E E E
------------------------------|--------------------------|
------------------------------|--------------------------|
------------------------------|--------------------------|
--0--3h--5--(0)--6p--5--3--5--|--0--0--0--0--0--0--0--0--|


 E E  E  E  E  E   E E E E E E E E
------------------------|--------------------------|
------------------------|--------------------------|
------------------------|--------------------------|
--0--3h--5--(0)--3h--5--|--0--0--0--0--0--0--0--0--|


 E E  E  E  E  E E E   E E E E E E E E
------------------------------|--------------------------|
------------------------------|--------------------------|
------------------------------|--------------------------|
--0--3h--5--(0)--6p--5--3--5--|--0--0--0--0--0--0--0--0--|


 E E  E  E  E  E   E E E E E E E E
------------------------|--------------------------|
------------------------|--------------------------|
------------------------|--------------------------|
--0--3h--5--(0)--3h--5--|--2--2--2--2--2--2--2--2--|


 E E  E  E  E  E E E   E E E E E E E E
------------------------------|--------------------------|
------------------------------|--------------------------|
------------------------------|--------------------------|
--2--5h--7--(0)--8p--7--5--7--|--2--2--2--2--2--2--2--2--|


 E E  E  E  E  E   E E E E E E E E
------------------------|--------------------------|
------------------------|--------------------------|
------------------------|--------------------------|
--2--5h--7--(0)--5h--7--|--2--2--2--2--2--2--2--2--|


 E E  E  E  E  E E E   E E E E E E E E
------------------------------|--------------------------|
------------------------------|--------------------------|
------------------------------|--------------------------|
--2--5h--7--(0)--8p--7--5--7--|--2--2--2--2--2--2--2--2--|


 E E  E  E  E  E   E E E E E E E E
------------------------|--------------------------|
------------------------|--------------------------|
------------------------|--------------------------|
--2--5h--7--(0)--5h--7--|--7--7--7--7--7--7--7--7--|


 Q  E E Q  Q    E E E E H
-----------------------|-----------------------|
-----------------------|-----------------------|
-------------5----7----|-----------------------|
--0----0--0------------|--0--0--2--0--3--------|


 E E E E Q  Q    E E E E Q  Q
------------------------|------------------------|
------------------------|--------------1---------|
--3--3--3--3--3----2----|--3--3--3--3-------2----|
------------------------|------------------------|


 Q  E E Q  Q    E E E E H
-----------------------|-----------------------|
-----------------------|-----------------------|
-------------5----7----|-----------------------|
--0----0--0------------|--0--0--2--0--3--------|


 E E E E Q  Q    E E E E Q  Q
------------------------|------------------------|
------------------------|--------------1---------|
--3--3--3--3--3----2----|--3--3--3--3-------2----|
------------------------|------------------------|


 Q  E E Q  Q    E E E E H
-----------------------|-----------------------|
-----------------------|-----------------------|
-------------5----7----|-----------------------|
--0----0--0------------|--0--0--2--0--3--------|


 E E E E Q  Q    E E E E Q  Q
------------------------|------------------------|
------------------------|--------------1---------|
--3--3--3--3--3----2----|--3--3--3--3-------2----|
------------------------|------------------------|


 Q  E E Q  Q    E E E E H
-----------------------|-----------------------|
-----------------------|-----------------------|
-------------5----7----|-----------------------|
--0----0--0------------|--0--0--2--0--3--------|


 E E E E Q  Q    E E Q  E E Q
------------------------|------------------------|
------------------------|--4--2--1----1----------|
--3--3--3--3--3----2----|----------------3--2----|
------------------------|------------------------|


 Q  Q  Q  Q    Q  Q  Q  Q
----------------------|----------------------|
----------------------|----------------------|
----------------------|----------------------|
--0----0--------------|--1----1--------------|


 Q  E Q  E E E   E E E E
------------------------|--------------|
------------------------|--------------|
------------------------|--------------|
--0----0--0----0--0--0--|--2--0--0--0--|


 Q  E Q  E E E   Q  Q  E E Q
------------------------|-----------------------|
------------------------|-----------------------|
------------------------|-----------------------|
--3----3--3----3--3--3--|--3----3----3--3--3----|


 Q  Q.   E E E   E E E E
-----------------------|--------------|
-----------------------|--------------|
--3----3------0--0--0--|--2--0--0--0--|
-----------------------|--------------|


 Q  Q  E E Q    E E Q  E E E E
-----------------------|-------------------------|
-------7----7-----7----|--7-----7----7-----7-----|
--0------------0-------|-----0----------0-----0--|
-----------------------|-------------------------|


 Q  Q.   E E E   E E E E
-----------------------|--------------|
-----------------------|--------------|
--5----5------0--0--0--|--3--0--0--0--|
-----------------------|--------------|


 Q  Q  E E E  E   Q  Q.   E E E
-------------------------|-----------------------|
-------------------------|-----------------------|
--2----2----2--2--5h--7--|-------7---------------|
-------------------------|--0----0------0--0--0--|


 E E E E   Q  E Q  E Q    E E Q
--------------|-----------------------|-------------|
--------------|-----------------------|-------------|
--5-----------|--3----3--3----3--3----|--3--3--3----|
-----0--0--0--|-----------------------|-------------|


 Q  Q  H      Q  Q  H
---------------------|---------------------|
---------------------|---------------------|
---------------------|---------------------|
--0----0-------------|--1----1-------------|


 Q  E Q  E E E   E E E E
------------------------|--------------|
------------------------|--------------|
------------------------|--------------|
--0----0--0----0--0--0--|--3--0--0--0--|


 Q  E Q  E E E   E E E E E E E E
------------------------|--------------------------|
------------------------|--------------------------|
--3----3--3----3--3--3--|--3--3--2--2--0--0--------|
------------------------|--------------------3--3--|


 Q  Q  H      Q  Q  H
---------------------|---------------------|
---------------------|---------------------|
---------------------|---------------------|
--0----0-------------|--1----1-------------|


106 BPM
 W          W          H
-------------------|-------------------|-----------|
-------------------|-------------------|-----------|
-------------------|-------------------|-----------|
-------------------|-------------------|-----------|


 W          W          W
-------------------|-------------------|-------------------|
-------------------|-------------------|-------------------|
-------------------|-------------------|-------------------|
-------------------|-------------------|-------------------|


 H      H      W
-----------|-----------|-------------------|
-----------|-----------|-------------------|
-----------|--7--------|--5----------------|
-----------|-----------|-------------------|


 W          H    H      H
-------------------|--------------------|-----------|
-------------------|--------------------|-----------|
--3----------------|--0--------2--------|--6--------|
-------------------|--------------------|-----------|


 E E E E   Q.   S S E E E E
--------------|-------------------------|
--------------|-------------------------|
--7--------7--|--5------5-5-5--5-----5--|
-----0--0-----|-------------------5-----|


 E Q  S S E E E E   Q.   E E S S E E
--------------------------|-------------------------|
--------------------------|-------------------------|
--3--3----3-3-3--3--0--3--|--0------0--2--2-2-0--2--|
--------------------------|-------------------------|


 S S S S E E   E E E E   Q.   S S E E E E
----------------|--------------|-------------------------|
----------------|--------------|-------------------------|
--6-6-6-6-0--6--|--7--------7--|--5------5-5-5--5-----5--|
----------------|-----0--0-----|-------------------5-----|


 E Q  S S E E E E   Q.   E E S S E E
--------------------------|-------------------------|
--------------------------|-------------------------|
--3--3----3-3-3--3--0--3--|--0------0--2--2-2-0--2--|
--------------------------|-------------------------|


 S S S S E E   E E E E   Q.   S S E E  E E
----------------|--------------|--------------------------|
----------------|--------------|--------------------------|
--6-6-6-6-0--6--|--7--------7--|--5------5-5-5--5S--7--5--|
----------------|-----0--0-----|--------------------------|


 Q.   S S E E E E   Q.   E E S S E E
-------------------------|-------------------------|
-------------------------|-------------------------|
--3------3-3-3--3--0--3--|--0------0--2--2-2-0--2--|
-------------------------|-------------------------|


 S S S S S S S S  E E E E
------------------|--------------|
------------------|--------------|
--6-6-6-6-0-0-6-6-|--7--------7--|
------------------|-----0--0-----|


 Q.   S S E E  E E   Q.   S S E E E E
--------------------------|-------------------------|
--------------------------|-------------------------|
--5------5-5-5--5S--7--5--|--3------3-3-3--3--0--3--|
--------------------------|-------------------------|


 Q.   S S E E E E   S S S S S S S S  E E E E
-------------------------|------------------|--------------|
-------------------------|------------------|--------------|
--0------0-0-2--2--0--2--|--6-6-6-6-0-0-6-6-|--7--------7--|
-------------------------|------------------|-----0--0-----|


 Q.   S S E E E E   E Q  S S E E E E
-------------------------|--------------------------|
-------------------------|--------------------------|
--5------5-5-5--5-----5--|--3--3----3-3-3--3--0--3--|
-------------------5-----|--------------------------|


 Q.   E E S S E E   S S E E E   E E E E
-------------------------|---------------|--------------|
-------------------------|---------------|--------------|
--0------0--2--2-2-0--2--|--6-6-6--0--6--|--7--------7--|
-------------------------|---------------|-----0--0-----|


 Q.   S S E E E E   E Q  S S E E E E
-------------------------|--------------------------|
-------------------------|--------------------------|
--5------5-5-5--5-----5--|--3--3----3-3-3--3--0--3--|
-------------------5-----|--------------------------|


 Q.   E E S S E E   S S S S E E   E E E E
-------------------------|----------------|--------------|
-------------------------|----------------|--------------|
--0------0--2--2-2-0--2--|--6-6-6-6-0--6--|--------------|
-------------------------|----------------|--0--0--0--0--|


 E E E E E E E E   E E E E E E E E
--------------------------|--------------------------|
--------------------------|--------------------------|
--------------------------|--------------------------|
--2--2--2--2--2--2--2--2--|--3--3--3--3--3--3--3--3--|


 E E E E E E E E   E E E E   E E E E
--------------------------|--------------|--------------|
--------------------------|--------------|--------------|
--------------------------|--6--6--6--6--|--------------|
--5--5--5--5--7--7--7--7--|--------------|--0--0--0--0--|


 E E E E E E E E   E E E E E E E E
--------------------------|--------------------------|
--------------------------|--------------------------|
--------------------------|--------------------------|
--2--2--2--2--2--2--2--2--|--3--3--3--3--3--3--3--3--|


 E E E E E E E E   E E E E
--------------------------|--------------|
--------------------------|--------------|
--------------------------|--6--6--6--6--|
--5--5--5--5--7--7--7--7--|--------------|


 E E E E E E E E   E E E E E E E E
--------------------------|--------------------------|
--------------------------|--------------------------|
--------------------------|--------------------------|
--0--0--0--0--0--0--0--0--|--0--0--0--0--0--0--0--0--|


 E E E E E E E S S  E E E E E E E E
---------------------------|--------------------------|
---------------------------|--------------------------|
-----------------------3-3-|-----------------------3--|
--2--2--3--2--2--2--3------|--2--2--3--2--2--2--3-----|


 E E E E E E E S S  E E E E E E E E
---------------------------|--------------------------|
---------------------------|--------------------------|
-----------------------3-3-|-----------------------3--|
--2--2--3--2--2--2--3------|--2--2--3--2--2--2--3-----|


 E E E E E E E S S  E E E E E E E E
---------------------------|--------------------------|
---------------------------|--------------------------|
-----------------------3-3-|-----------------------3--|
--2--2--3--2--2--2--3------|--2--2--3--2--2--2--3-----|


 E E E E E E E S S  E E E E E E E E
---------------------------|--------------------------|
---------------------------|--------------------------|
-----------------------3-3-|-----------------------3--|
--2--2--3--2--2--2--3------|--2--2--3--2--2--2--3-----|


 E E E E E E E S S  E E E E E E E E
---------------------------|--------------------------|
---------------------------|--------------------------|
-----------------------3-3-|-----------------------3--|
--2--2--3--2--2--2--3------|--2--2--3--2--2--2--3-----|


 E E E E E E E S S  E E E E E E E E
---------------------------|--------------------------|
---------------------------|--------------------------|
-----------------------3-3-|-----------------------3--|
--2--2--3--2--2--2--3------|--2--2--3--2--2--2--3-----|


212 BPM
 Q  Q.   E E E   Q  Q  E E Q
-----------------------|-----------------------|
-----------------------|-----------------------|
-----------------------|-----------------------|
--3----3------3--3--3--|--L----3----3--3--3----|


 Q  Q  E E Q    E E Q  E E Q
-----------------------|------------------------|
-----------------------|------------------------|
-----------------------|------------------------|
--2----2----2--2--2----|--3--2--0----3--2--0----|


 E E E E E E E E   E E  E  E  E  E E E
--------------------------|------------------------------|
--------------------------|------------------------------|
--------------------------|------------------------------|
--0--0--0--0--0--0--0--0--|--0--3h--5--(0)--6p--5--3--5--|


 E E E E E E E E   E E  E  E  E  E
--------------------------|------------------------|
--------------------------|------------------------|
--------------------------|------------------------|
--0--0--0--0--0--0--0--0--|--0--3h--5--(0)--3h--5--|


 E E E E E E E E   E E  E  E  E  E E E
--------------------------|------------------------------|
--------------------------|------------------------------|
--------------------------|------------------------------|
--0--0--0--0--0--0--0--0--|--0--3h--5--(0)--6p--5--3--5--|


 E E E E E E E E   E E  E  E  E  E
--------------------------|------------------------|
--------------------------|------------------------|
--------------------------|-----5h--7-------5h--7--|
--0--0--0--0--0--0--0--0--|--0---------(0)---------|


 E E E E E E E E   E E  E  E  E  E E E
--------------------------|------------------------------|
--------------------------|------------------------------|
--------------------------|------------------------------|
--0--0--0--0--0--0--0--0--|--0--3h--5--(0)--6p--5--3--5--|


 E E E E E E E E   E E  E  E  E  E
--------------------------|------------------------|
--------------------------|------------------------|
--------------------------|------------------------|
--0--0--0--0--0--0--0--0--|--0--3h--5--(0)--3h--5--|


 E E E E E E E E   E E  E  E  E  E E E
--------------------------|------------------------------|
--------------------------|------------------------------|
--------------------------|------------------------------|
--0--0--0--0--0--0--0--0--|--0--3h--5--(0)--6p--5--3--5--|


 E E E E E E E E   E E  E  E  E  E
--------------------------|------------------------|
--------------------------|------------------------|
--------------------------|------------------------|
--0--0--0--0--0--0--0--0--|--0--3h--5--(0)--3h--5--|


 E E E E E E E E   E E  E  E  E  E E E
--------------------------|------------------------------|
--------------------------|------------------------------|
--------------------------|------------------------------|
--2--2--2--2--2--2--2--2--|--2--5h--7--(0)--8p--7--5--7--|


 E E E E E E E E   E E  E  E  E  E
--------------------------|------------------------|
--------------------------|------------------------|
--------------------------|------------------------|
--2--2--2--2--2--2--2--2--|--2--5h--7--(0)--5h--7--|


 E E E E E E E E   E E  E  E  E  E E E
--------------------------|------------------------------|
--------------------------|------------------------------|
--------------------------|------------------------------|
--2--2--2--2--2--2--2--2--|--2--5h--7--(0)--8p--7--5--7--|


 E E E E E E E E   E E  E  E  E  E
--------------------------|------------------------|
--------------------------|------------------------|
--------------------------|------------------------|
--2--2--2--2--2--2--2--2--|--2--5h--7--(0)--5h--7--|


 E E E E E E E E   E E E E E E E E
--------------------------|--------------------------|
--------------------------|--------------------------|
--------------------------|--------------------------|
--7--7--7--7--7--7--7--7--|--0--0--1--0--0--1--0--0--|


 E E E E E E E E   E E E E E E E E
--------------------------|--------------------------|
--------------------------|--------------------------|
--------------------2--2--|--------------------------|
--1--0--0--1--0--0--------|--0--0--1--0--0--1--0--0--|


 E E E E E E Q    E E E E E E E E
-------------------------|--------------------------|
-------------------------|--------------------------|
--------------------2----|--------------------------|
--1--0--0--1--0--0-------|--0--0--1--0--0--1--0--0--|


 E E E E E E E E   E E E E E E E E
--------------------------|--------------------------|
--------------------------|--------------------------|
--------------------2--2--|--------------------------|
--1--0--0--1--0--0--------|--0--0--1--0--0--1--0--0--|


 E E E E E E Q    E E E E E E E S S
-------------------------|---------------------------|
-------------------------|---------------------------|
--------------------2----|---------------------------|
--1--0--0--0--0--0-------|--0--0--0--0--0--0--0--0-0-|


 E E E E E E E E   E E H    E S S
--------------------------|-----0------------------|
--------------------0--2--|--4---------------------|
-----------0--2--3--------|--------3--------3--3-3-|
--0--2--3-----------------|------------------------|


 E E E E E E E E   E E E E E E E S S
--------------------------|---------------------------|
-----------0--------------|---------------------------|
--3--2--3-----3--2--0--2--|---------------------------|
--------------------------|--0--0--0--0--0--0--0--0-0-|


 E E E E E E E E   E E H    E S S
--------------------------|-----0------------------|
--------------------0--2--|--4---------------------|
-----------0--2--3--------|--------3--------3--3-3-|
--0--2--3-----------------|------------------------|


 E E E E E E E E   E E E E E E E S S
--------------------------|---------------------------|
-----------0--------------|---------------------------|
--3--2--3-----3--2--0--2--|---------------------------|
--------------------------|--0--0--0--0--0--0--0--0-0-|


 E E E E E E E E   E E H    E S S
--------------------------|-----0------------------|
--------------------0--2--|--4---------------------|
-----------0--2--3--------|--------3--------3--3-3-|
--0--2--3-----------------|------------------------|


 E E E E E E E E   E E E E E E E S S
--------------------------|---------------------------|
-----------0--------------|---------------------------|
--3--2--3-----3--2--0--2--|---------------------------|
--------------------------|--0--0--0--0--0--0--0--0-0-|


 E E E E E E E E   E E H    E S S
--------------------------|-----0------------------|
--------------------0--2--|--4---------------------|
-----------0--2--3--------|--------3--------L--3-3-|
--0--2--3-----------------|------------------------|


 E E E E E E E E   H.      E S S
--------------------------|----------------------|
-----------0--------------|----------------------|
--3--2--3-----3--2--0--2--|------------------3-3-|
--------------------------|--0------------L------|


 E E E E E E E E   Q  H.
--------------------------|--------------------|
-----------0--------------|--------------------|
--3--2--3-----3--2--0--2--|--------------------|
--------------------------|--0-----------------|


 W          W
-------------------|-------------------|
-------------------|-------------------|
-------------------|-------------------|
-------------------|-------------------|


 E  E E E  E E E  E   Q  H.
-----------------------------|--------------------|
-----------------------------|--------------------|
-----------------------------|--------------------|
--3S--2--0--3S--2--0--3S--2--|--0-----------------|


 W          W
-------------------|-------------------|
-------------------|-------------------|
-------------------|-------------------|
-------------------|-------------------|


 E  E E E  E E E  E   E  E E E  E E E  E
-----------------------------|-----------------------------|
-----------------------------|-----------------------------|
-----------------------------|-----------------------------|
--3S--2--0--3S--2--0--3S--2--|--3S--2--0--3S--2--0--3S--2--|


 E E E E E E E E   E E  E  E  E  E E E
--------------------------|------------------------------|
--------------------------|------------------------------|
--------------------------|------------------------------|
--0--0--0--0--0--0--0--0--|--0--3h--5--(0)--6p--5--3--5--|


 E E E E E E E E   E E  E  E  E  E
--------------------------|------------------------|
--------------------------|------------------------|
--------------------------|------------------------|
--0--0--0--0--0--0--0--0--|--0--3h--5--(0)--3h--5--|


 E E E E E E E E   E E  E  E  E  E E E
--------------------------|------------------------------|
--------------------------|------------------------------|
--------------------------|------------------------------|
--0--0--0--0--0--0--0--0--|--0--3h--5--(0)--6p--5--3--5--|


 E E E E E E E E   E E  E  E  E  E
--------------------------|------------------------|
--------------------------|------------------------|
--------------------------|-----5h--7-------5h--7--|
--0--0--0--0--0--0--0--0--|--0---------(0)---------|


 Q  E E E E E E   E E  E  E  E  E E E
-------------------------|------------------------------|
-------------------------|------------------------------|
-------------------------|------------------------------|
--0----0--0--0--0--0--0--|--0--3h--5--(0)--6p--5--3--5--|


 E E E E E E E E   E E  E  E  E  E
--------------------------|------------------------|
--------------------------|------------------------|
--------------------------|------------------------|
--0--0--0--0--0--0--0--0--|--0--3h--5--(0)--3h--5--|


 E E E E E E E E   E E  E  E  E  E E E
--------------------------|------------------------------|
--------------------------|------------------------------|
--------------------------|------------------------------|
--0--0--0--0--0--0--0--0--|--0--3h--5--(0)--6p--5--3--5--|


 E E E E E E E E   E E  E  E  E  E
--------------------------|------------------------|
--------------------------|------------------------|
--------------------------|------------------------|
--0--0--0--0--0--0--0--0--|--0--3h--5--(0)--3h--5--|


 E E E E E E E E   E E  E  E  E  E E E
--------------------------|------------------------------|
--------------------------|------------------------------|
--------------------------|------------------------------|
--2--2--2--2--2--2--2--2--|--2--5h--7--(0)--8p--7--5--7--|


 E E E E E E E E   E E  E  E  E  E
--------------------------|------------------------|
--------------------------|------------------------|
--------------------------|------------------------|
--2--2--2--2--2--2--2--2--|--2--5h--7--(0)--5h--7--|


 E E E E E E E E   E E  E  E  E  E E E
--------------------------|------------------------------|
--------------------------|------------------------------|
--------------------------|------------------------------|
--2--2--2--2--2--2--2--2--|--2--5h--7--(0)--8p--7--5--7--|


 E E E E E E E E   E E  E  E  E  E
--------------------------|------------------------|
--------------------------|------------------------|
--------------------------|------------------------|
--2--2--2--2--2--2--2--2--|--2--5h--7--(0)--5h--7--|


 E E E E E E E E   Q  E E Q  Q
--------------------------|-----------------------|
--------------------------|-----------------------|
--------------------------|-------------5----7----|
--7--7--7--7--7--7--7--7--|--0----0--0------------|


 E E E E H      E E E E Q  Q
-----------------------|------------------------|
-----------------------|------------------------|
-----------------------|--3--3--3--3--3----2----|
--0--0--2--0--3--------|------------------------|


 E E E E Q  Q    Q  E E Q  Q
------------------------|-----------------------|
--------------1---------|-----------------------|
--3--3--3--3-------2----|-------------5----7----|
------------------------|--0----0--0------------|


 E E E E H      E E E E Q  Q
-----------------------|------------------------|
-----------------------|------------------------|
-----------------------|--3--3--3--3--3----2----|
--0--0--2--0--3--------|------------------------|


 E E E E Q  Q    Q  E E Q  Q
------------------------|-----------------------|
--------------1---------|-----------------------|
--3--3--3--3-------2----|-------------5----7----|
------------------------|--0----0--0------------|


 E E E E H      E E E E Q  Q
-----------------------|------------------------|
-----------------------|------------------------|
-----------------------|--3--3--3--3--3----2----|
--0--0--2--0--3--------|------------------------|


 E E E E Q  Q    Q  E E Q  Q
------------------------|-----------------------|
--------------1---------|-----------------------|
--3--3--3--3-------2----|-------------5----7----|
------------------------|--0----0--0------------|


 E E E E H      E E E E Q  Q
-----------------------|------------------------|
-----------------------|------------------------|
-----------------------|--3--3--3--3--3----2----|
--0--0--2--0--3--------|------------------------|


 E E Q  E E Q    Q  Q  Q  Q
------------------------|----------------------|
--4--2--1----1----------|----------------------|
----------------3--2----|----------------------|
------------------------|--0----0--------------|


 Q  Q  Q  Q    Q  E Q  E E E
----------------------|------------------------|
----------------------|------------------------|
----------------------|------------------------|
--1----1--------------|--0----0--0----0--0--0--|


 E E E E   Q  E E E E E E
--------------|-------------------------|
--------------|-------------------------|
--------------|-------------------------|
--2--0--0--0--|--3----3--3--L--3--3--3--|


 Q  Q  E E Q    Q  Q  E E E E
-----------------------|------------------------|
-----------------------|------------------------|
-----------------------|--3----3----L--0--0--0--|
--3----3----3--3--3----|------------------------|


 E E E E   Q  E Q  E E E
--------------|------------------------|
--------------|------------------------|
--2--0--0--0--|--0----0--0----0--0--0--|
--------------|------------------------|


 Q  Q  E E E E   Q  Q.   E E E
------------------------|-----------------------|
------------------------|-----------------------|
--0----0----0--0--0--0--|--5----5------0--0--0--|
------------------------|-----------------------|


 E E E E   Q  Q.   E E  E
--------------|------------------------|
--------------|------------------------|
--3--0--0--0--|--2----2------2--5h--7--|
--------------|------------------------|


 Q  Q.   E E E   E E E E
-----------------------|--------------|
-----------------------|--------------|
-------7---------------|--5-----------|
--0----0------0--0--0--|-----0--0--0--|


 Q  E E E E Q    E E E E
------------------------|--------------|
------------------------|--------------|
--3----3--3--L--3--3----|--3--3--3--3--|
------------------------|--------------|


 Q  Q  H      Q  Q  H
---------------------|---------------------|
---------------------|---------------------|
---------------------|---------------------|
--0----0-------------|--1----1-------------|


 Q  E Q  E E E   E E E E
------------------------|--------------|
------------------------|--------------|
------------------------|--------------|
--0----0--0----0--0--0--|--3--0--0--0--|


 Q  E Q  E E E   E E E E Q  Q
------------------------|------------------------|
------------------------|------------------------|
--3----3--3----3--3--3--|--3--3--2--2--0---------|
------------------------|-------------------3----|


 Q  Q  H      Q  Q  H
---------------------|---------------------|
---------------------|---------------------|
---------------------|---------------------|
--0----0-------------|--1----1-------------|


 E E E E E E E E   E E  E  E  E  E E E
--------------------------|------------------------------|
--------------------------|------------------------------|
--------------------------|------------------------------|
--0--0--0--0--0--0--0--0--|--0--3h--5--(0)--6p--5--3--5--|


 E E E E E E E E   E E  E  E  E  E
--------------------------|------------------------|
--------------------------|------------------------|
--------------------------|------------------------|
--0--0--0--0--0--0--0--0--|--0--3h--5--(0)--3h--5--|


 E E E E E E E E   E E  E  E  E  E E E
--------------------------|------------------------------|
--------------------------|------------------------------|
--------------------------|------------------------------|
--0--0--0--0--0--0--0--0--|--0--3h--5--(0)--6p--5--3--5--|


 E E E E E E E E   E E  E  E  E  E
--------------------------|------------------------|
--------------------------|------------------------|
--------------------------|-----5h--7-------5h--7--|
--0--0--0--0--0--0--0--0--|--0---------(0)---------|


 Q  E E E E E E   E E  E  E  E  E E E
-------------------------|------------------------------|
-------------------------|------------------------------|
-------------------------|------------------------------|
--0----0--0--0--0--0--0--|--0--3h--5--(0)--6p--5--3--5--|


 E E E E E E E E   E E  E  E  E  E
--------------------------|------------------------|
--------------------------|------------------------|
--------------------------|------------------------|
--0--0--0--0--0--0--0--0--|--0--3h--5--(0)--3h--5--|


 E E E E E E E E   E E  E  E  E  E E E
--------------------------|------------------------------|
--------------------------|------------------------------|
--------------------------|------------------------------|
--0--0--0--0--0--0--0--0--|--0--3h--5--(0)--6p--5--3--5--|


 E E E E E E E E   E E  E  E  E  E
--------------------------|------------------------|
--------------------------|------------------------|
--------------------------|------------------------|
--0--0--0--0--0--0--0--0--|--0--3h--5--(0)--3h--5--|


 W          E  E E E  E E E  E
-------------------|-----------------------------|
-------------------|-----------------------------|
-------------------|-----------------------------|
-------------------|--3S--2--0--3S--2--0--3S--2--|


 W
-------------------||
-------------------||
-------------------||
--0----------------||



Duration 🏷Legend
---------------
W - whole
H - half
Q - quarter
E - 8th
S - 16th
T - 32nd
X - 64th
. - note dotted
|-n-| - n-tuplets


Tablature 🏷Legend
----------------
L - tied note
x - dead note
g - grace note
(n) - ghost note
> - accentuded note
NH - natural harmonic
AH - artificial harmonic
TH - tapped harmonic
SH - semi harmonic
PH - pitch harmonic
h - hammer on
p - pull off
b - bend
br - bendRelease
pb - preBend
pbr - preBendRelease
brb - bendReleaseBend
\n/ - tremolo bar dip
\n - tremolo bar dive
-/n - tremolo bar Release up
/n\ - tremolo bar inverted dip
/n - tremolo bar return
-\n - tremolo bar Release down
S - shift slide
s - legato slide
/ - slide into from below or out of upwards
\ - slide into from above or out of downwards
~ - vibrato
W - wide vibrato
tr - trill
TP - tremolo picking
T - tapping
S - slap
P - pop
< - fade in
^ - brush up
v - brush down
ⓘ This is the 2nd version of bass guitar tab for 'Master Of Puppets' by Metallica, a thrash metal band formed in 1981 from Los Angeles, USA. Metallica is known for their angry metal music.

Other versions of Master Of Puppets

Master of puppetsBass tabs
Master of puppets (Ver. 3)Bass tabs
Master of puppets albumBass tabs

Almost there ...

Sign in to get your own page with links to favourite songs and more. You are just one click away...

Login with Facebook Login with Google