Log in

One click and you are in

Login with Facebook Login with Google

Why sign up and log in

Guitar Tabs Explorer
Metallica chords for Last carress

Guitar chords with lyrics

From alt.guitar.tab Sun May  2 21:07:28 1993

Someone requested this in alt.rock-n-roll.metal.metallica, so as that is not an
appropriate newsgroup, I've posted it in here.

--------------------------
The last caress

I got a req from a guy a while back to transcribe this song ..... so this is
the way I heard it . Good thing there's no solo . Anyway , it may not be
perfect but have fun ......

   I got something to ...


   A chord diagramC majorC                     A chord diagramFF A chord diagramG+G  A chord diagramC majorC                     A chord diagramFF   A chord diagramG+G
A chord diagramE MajorE|--------------------------------------------------------|
A chord diagramBB|--------------------------------------------------------|
A chord diagramG+G|-5--------------------------5---------------------------|
A chord diagramD MajorD|-5--------------------------5---------------------10-12-|
A chord diagramA augmentedA|-3---------------------3-5--3---------------------8--10-|
A chord diagramE MajorE|-----------------------1-3------------------------------|

   Doesn't matter much ....
  A chord diagramFF                 A chord diagramD MajorD                A chord diagramC majorC    A chord diagramC majorC  ................
|-------------------------------------------------------------
|-------------------------------------------------------------
|-------------------------------------------------------------
|-10----------------7----------------5----5-5-5-5-5-5-5-5-5-5-
|-8-----------------5----------------3----3-3-3-3-3-3-3-3-3-3-
|-------------------------------------------------------------
  A chord diagramFF   A chord diagramG+G  A chord diagramC majorC   A chord diagramC majorC . . . . . . . . .       A chord diagramFF  A chord diagramG+G  A chord diagramG+G
|-----------------------------------------------
|-----------------------------------------------
|-----------------------------------------------
|-10-12--5---5-5-5-5-5-5-5-5-5-5---------12-12--
|-8--10--3---3-3-3-3-3-3-3-3-3-3---6h7h8s10-10--
|-----------------------------------------------

I got something to ...
  A chord diagramC majorC  A chord diagramC majorC . . . . . . . .    A chord diagramFF  A chord diagramG+G   A chord diagramC majorC  A chord diagramC majorC . . . . . . . . .   A chord diagramFF  A chord diagramG+G
|--------------------------------------------------------------
|--------------------------------------------------------------
|--------------------------------------------------------------
|-5--5-5-5-5-5-5-5-5-5-5--10-12--5--5-5-5-5-5-5-5-5-5-5---10-12
|-3--3-3-3-3-3-3-3-3-3-3--8--10--3--3-3-3-3-3-3-3-3-3-3---8--10
|--------------------------------------------------------------

Doesn't matter much to ...
  A chord diagramFF  A chord diagramFF         A chord diagramD MajorD A chord diagramD MajorD            A chord diagramC majorC A chord diagramC majorC               B/C B/C
|----------------------------------------------------------------
|----------------------------------------------------------------
|----------------------------------------------------------------
|-10-10--------7-7------------5-5---------------4s5-4s5----------
|-8--8---------5-5------------3-3---------------2s3-2s3----------
|-----------------------------------------------------------------

  c/o
   Who knows if death ...
  A chord diagramFF  A chord diagramFF          A chord diagramD MajorD A chord diagramD MajorD         A chord diagramD MajorD  A chord diagramE MajorE . . . . . . . .    A chord diagramD MajorD  A chord diagramC majorC
|-----------------------------------------------------------
|-----------------------------------------------------------
|-----------------------------------------------------------
|-10-10---------7-7---------7--9-9-9-9-9-9-9-9-9----7--5----
|-8--8----------5-5---------5--7-7-7-7-7-7-7-7-7----5--3----
|-----------------------------------------------------------

  Cause we   get    ...
|------------------------------------------------------------------
|------------------------------------------------------------------
|------------------------------------------------------------------
|-10-10------7-7--------------5--5-5-5-5-5-5-5-5-5-5---------12-12-
|-8--8-------5-5--------------3--3-3-3-3-3-3-3-3-3-3---6h7h8s10-10-
|------------------------------------------------------------------

|-------------------------------------------------------------------
|-------------------------------------------------------------------
|-------------------------------------------------------------------
|-5--5-5-5-5-5-5-5-5-5-5--10-12--5--5-5-5-5-5-5-5-5-5-5--10-12------
|-3--3-3-3-3-3-3-3-3-3-3--8--10--3--3-3-3-3-3-3-3-3-3-3--8--10------
|-------------------------------------------------------------------

|--------------------------------------
|--------------------------------------  Back to c/o and repeat till
|--------------------------------------  strumming hand hurts or
|-10-10----7-7-------5-5-----4s5-4s5---  pick breaks or whichever comes
|-8--8-----5-5-------3-3-----2s3-2s3---  first...........
|--------------------------------------

The whole song is played using power chords and I prefer to use only two
strings for speed . All of it is played with downstrokes ( which , by the
way is almost impossible ) and I take no responsibility for timing.
The hammer and sliding part is how it sounds to me , but if you have a
better idea , go ahead and correct me .


--
-=-=-=-=-=-=-=-=-=-=-=-=-=-=-=-=-=-=-=-=-=-=-=-=-=-=-=-=-=-=-=-=-=-=-=
Sitting in the corner you are naked and alone,
No one listened to your plea's you created me.

JANET:	  AESBL1AJM@UK.AC.DUNDEE-TECH.CC.CLUSTER
INTERNET: AESBL1AJM@UK.AC.DCT
=-=-=-=-=-=-=-=-=-=-=-=-=-=-=-=-=-=-=-=-=-=-=-=-=-=-=-=-=-=-=-=-=-=-=-

Almost there ...

Sign in to get your own page with links to favourite songs and more. You are just one click away...

Login with Facebook Login with Google