Log in

One click and you are in

Login with Facebook Login with Google

Why sign up and log in

Guitar Tabs Explorer
Metallica tabs for Kirk doodle 2

Guitar tabs

Kirk Doodle 2 played at Rock In Rio


Tabbed by joedaman

If you find any faults in this tab, please mail me at joseph.handel@hotmail.com,
and tell me what to correct.And if I think it is better I'll correct it.
The main reason I made this tab was that i couldn't find any for myself.
So i decided to learn it and tab it for others to learn. I am pretty sure that
the song is played with some type of echo sound effects in some or most parts,
but you can do without it.





|----------------------------------------------------|
|----------------------------------------------------|
|----------------------------------------------------|
|--------------------6-6--7-7-/9-9-----------9-------|
|--------------/7-7-----------------7-7----7---7-----|
|----0-0---0-----------------------------0-----------|


|--------------------------------------------|
|--------------------------------------------|
|------------------------------------7/9-----|
|-----------6-6--7-7-/9-9--------------------|
|-----/7-7-----------------7-7----7----------|
|--0----------------------------0------------|


|-------------------------------------------|
|-------------------------------------------|
|-------------------------------------------|
|------------6-6--7-7-/9-9-----------9------|
|------/7-7-----------------7-7----7---7----|
|----0---------------------------0----------|


|----------------------------------------------------------|
|----------------------------------------------------------|
|--------------------------------------------7/9-9---------|
|--------------------6-6--7-7-/9-9-------------------------|
|--------------/7-7-----------------7-7----7---------------|
|----0-0---0-----------------------------0-----------------|


|--------------------------------------------------------------|
|-----10-9h10p9---------------------------10-9h10p9------------|
|-----9---------11-9-7/9-9----------------9---------11-9-7/9-9-|
|----------------------------------9---------------------------|
|------------------------------7-7---7-------------------------|
|---------------------------0----------------------------------|


|-----------------------------------------------------|
|-----------------------------------------------------|
|-----------------------------------------------------|
|---------9------------6-6--7-7-/9-9----------9-------|
|-----7-7---7-----/7-7---------------7----7-7---7-----|
|--0------------0-----------------------0-------------|


|-------------------------------------------------|
|-------------------------------------------------|
|-------------------------------------7/9-9-------|
|------------6-6-7-7-/9-9-------------------------|
|------/7-7----------------7-7-----7--------------|
|--0----------------------------0-----------------|


|--------------------------------------------------|
|---8-7h8p75------------------8p7-----------------|
|---7---------7-5-----------7------9-7-------------|
|-----------------7-----7/9------------9-----------|
|-------------------5--------------------3---------|
|--------------------------------------------------|


|-------------------------------------------|
|---------6p5-----------------8p7-----------|
|-------5-----7-5----------7------9-7-------|
|---5/7-----------7----7/9------------9-----|
|-------------------5-------------------3---|
|-------------------------------------------|


|----------------------------------------------|
|----------6p5---5-6p5-------------8p7--10p7---|
|-------5------7-------7---------7-------------|
|---5/7----------------------7/9---------------|
|-------------------------5--------------------|
|----------------------------------------------|


|-------------------------------------------|
|----------6p5------------------8--7--10----|
|--------5-----7-5-----------7--7--7--7-----|
|----5/7-----------7-----7/9----------------|
|--------------------5----------------------|
|-------------------------------------------|


|----------------------------------------------------------|
|----------------------------------------------------------|
|-------------------6-6/9----------------------------9-----|
|---------5------7--------------6-7-9-7-6-----9------------|
|--3--5/7----7/9-------------/7-----------7-----7------7---|
|-------------------------0-----------------0------0-------|


|-------------------------------------|
|-------------------------------------|
|------------------------------9------|
|------6-7-9-7-6------9---------------|
|---/7-----------7------7--------7----|
|-0----------------0-------0----------|


|-------------------------------------|
|-------------------------------------|
|------------------------------9------|
|------6-7-9-7-6------9---------------|
|---/7-----------7------7--------7----|
|-0----------------0-------0----------|


|-------------------------------------|
|-------------------------------------|
|-------------------------------------|
|------6-7-9-7-6------9---------9-----|
|---/7-----------7------7-----7-7-----|
|-0----------------0-------0----------|


|-------------------------------------|
|-------------------------------------|
|-----------------------------7/9-9---|
|------6-7-9-7-6------9---------------|
|---/7-----------7------7-------------|
|-0----------------0-------0----------|

Now comes the ending.

|-------------------------------------------------------------------------|
|-------------------------------------------------------------------------|
|-7h9-9---7-9/11--9-11--11/14---11-14-14/16---14-16-16/19---16-19-19/21---|
|-------------------------------------------------------------------------|
|-------------------------------------------------------------------------|
|-------------------------------------------------------------------------|


|-------------------------------------------------------------------------|
|-------------------------------------------------------------------------|
|-1916-19-16-14-16-16p14p11--14p11p9--11p9p7--9p7p4--7p4p2--4p2-0-2------|
|-------------------------------------------------------------------------|
|-------------------------------------------------------------------------|
|-------------------------------------------------------------------------|


|-------------------------------------------------------------------24----|
|--------------------------------------------------------------24---------|
|-----2---------------------------------------------------21--------------|
|-3-3---2---2-------------------------------------------------------------|
|---------3---2---2-----2-----2-------------------------------------------|
|---------------3---3-2---2-1---1-0---------------------------------------|


That's that! Enjoy!
ⓘ Guitar tab for 'Kirk Doodle 2' by Metallica, a thrash metal band formed in 1981 from Los Angeles, USA. Metallica is known for their angry metal music.

Almost there ...

Sign in to get your own page with links to favourite songs and more. You are just one click away...

Login with Facebook Login with Google