Log in

One click and you are in

Login with Facebook Login with Google

Why sign up and log in

Guitar Tabs Explorer
Metallica tabs for Hero of the day

Guitar tabs with lyrics

Title: Hero of the Day
Album: Load

* Guitar should be tuned 1/2 step down but still sounds good with normal

tuning.
                   Intro.
|----------------------------------------------------------------|

|----------------------------------------------------------------|

|----------------2-------2-------2-------2-------4-----4-----4---|

|--------------2-------2-------2-------2-------6---4-----6-----6-|

|------0-----0-------2-------4-------5-------7-------7-----7-----|

|---2-----2------------------------------------------------------|



|------------------------------------------------------------------------|


|------------------------------------------------------------------------|

|----------------2-------2-------2-------2---4---4-----4-----4---4p6p4---|

|--------------2-------2-------2-------2-----6-6---4-----6-----6-------6\|

|------0-----0-------2-------4-------5-------7-------7-----7-------------|

|---2-----2--------------------------------------------------------------|




                   Verses are the same as the Intro except the
                   -
                   -
                   4
                   6  is strummed a little bit at the end part
                   7
                   -

                   *Then Distortion Used


|----------------------------------------------------------------|

|----------------------------------------------------------------|

|----------------2-------2-------2-------2-------4--4---4---4-4-4|

|--------------2-------2-------2-------2-------6----6---6---6-6-6|

|------0-----0-------2-------4-------5-------7------7---7---7-7-7|

|---2-----2------------------------------------------------------|



|----------------------------------------------------------------|

|----------------------------------------------------------------|

|----------------2-------2-------2-------2-------4--4---4---4-4-4|

|--------------2-------2-------2-------2-------6----6---6---6-6-6|

|------0-----0-------2-------4-------5-------7------7---7---7-7-7|

|---2-----2------------------------------------------------------|


                   Chorus.

                   |-----------------------------|
                   |-----------------------------|
                   |--2---4---6---7-/-9-9---9-9-9| Play this twice
                   |--2---4---6---7-/-9-9---9-9-9|
                   |--0---2---4---5-/-7-7---7-7-7|
                   |-----------------------------|

                   Intro.
                   Verse.
                   Chorus.
                   Heavy Part

                   |--X-X-5-X--4--4--4--4--4--4--
                   |--X-X-5-X--4--4--4--4--4--4--
                   |--0-0-3-0--2--2--2--2--2--2--




Here's the solo as it is in the song, I know it's right, cause it sounds
EXACTLY like it when I play it, as it is in the song. Have fun!

slide
eb-----------------------5--------------------------------------5/10--
Bb-7--5-5-7--5-7---7-5-----7---7--7--5---7--7--5--7----7--5---------
Gb---------------------------------------------------------------------
Db---------------------------------------------------------------------
Ab---------------------------------------------------------------------
Eb---------------------------------------------------------------------


eb---10---10--10--10---9--9--9---9--9--9--7-------7------------------
Bb---------------------------------------------------------------------
Gb---------------------------------------------------------------------
Db---------------------------------------------------------------------
Ab---------------------------------------------------------------------
Eb---------------------------------------------------------------------


eb-----------------------------5---------------------------------------
Bb-7---5---7---5--7----7--5-------7--7----7--7--5----7--7--5--7------
Gb---------------------------------------------------------------------
Db---------------------------------------------------------------------
Ab---------------------------------------------------------------------
Eb---------------------------------------------------------------------

                   slide
eb-----------5/12-----12---12--12--12---10--10--10--12----12--14----
Bb---7--5--------------------------------------------------------------
Gb---------------------------------------------------------------------
Db---------------------------------------------------------------------
Ab---------------------------------------------------------------------
Eb---------------------------------------------------------------------
                tremelo
                 pick
eb-----14--16-------------------------------17---17---17---17---17---
Bb----------\----------------------------------------------------------
Gb----------\--------------------------------14---14---14---14---14--
Db----------\---------------------------------------------------------
Ab--------------------------------------------------------------------
Eb--------------------------------------------------------------------


eb-17---17---17---17---17---17---17---17---17---17---17---17---17-
Bb-------------------------------------------------------------------
Gb-14---14---14---14---14---14---14---14---14---14---14---14---14-
Db-------------------------------------------------------------------
Ab-------------------------------------------------------------------
Eb-------------------------------------------------------------------


eb-17---17---17---17---17---17---17---17---17/16---16---16---16/14
Bb-------------------------------------------------------------------
Gb-14---14---14---14---14---14---14---14---14/13---13---13---13/11
Db-------------------------------------------------------------------
Ab-------------------------------------------------------------------
Eb-------------------------------------------------------------------


eb---14/12---12---12---12---12---12---12---12---12---12---12---12-
Bb-------------------------------------------------------------------
Gb---11/9-----9----9----9----9----9-----9----9----9----9----9----9-
Db-------------------------------------------------------------------
Ab-------------------------------------------------------------------
Eb-------------------------------------------------------------------


eb--12---12---12---12---12---12---12---12---12---12---12---12-12-12
Bb---------------------------------------------------------------------
Gb--9-----9----9----9----9-----9----9----9----9----9----9----9--9---9
Db---------------------------------------------------------------------
Ab---------------------------------------------------------------------
Eb---------------------------------------------------------------------


eb----22---22--22--22---21/14/17-------------------------------------
Bb---------------------------------------------------------------------
Gb----19---19--19--19---18/11/14-------------------------------------
Db---------------------------------------------------------------------
Ab---------------------------------------------------------------------
Eb---------------------------------------------------------------------


That's it!  Questions? Comments? Death threats? (actually, if you send
me a death threat, I'll probably take it seriously, j/k) E-mail me at
Metallicat87@hotmail.com

Other versions of Hero Of The Day

Hero of the dayChords
Hero of the day live - introTabs

Almost there ...

Sign in to get your own page with links to favourite songs and more. You are just one click away...

Login with Facebook Login with Google