GuitarTabsExplorer icon
GuitarTabsExplorer icon

Log in

Songbook

  • Log in to add and see bookmarks

Last visited songs

    No songs visited yet...

Hero Of The Day Live by Metallica

Hero Of The Day Live by Metallica

Intro

Title: Hero Of The Day
Artist: Metallica
Album: Load
Words: Metallica
Music: Metallica

***************
Rhythm Guitars*
***************

🏷Legend
L - tied note
x - dead note
h - hammer on/pull off
b - bend
s - slide
~ - vibrato
g - ghost note
> - accentuated note
t - trill
M - palm mute
. - staccato
P - popping (bass)
S - slapping (bass)
+ - tapping
W - wide vibrato
< - fade in
w - whammy bar
= - tremolo picking
v - brush up
^ - brush down
V - pick stroke up
n - pick stroke down

Intro
Chord diagramD#D#|----------------------------|----------------------------|
Chord diagramA#A#|----------------------------|----------------------------|
Chord diagramF#F#|----------------------------|--------2-----------2-------|
Chord diagramC#C#|----------------------------|-----2-----------2----------|
Chord diagramG#G#|--------------------0-------|--0-----------2-------------|
Chord diagramD#D#|-----------------2-----2----|----------------------------|


----------------------------|----------------------------|
----------------------------|----------------------------|
--------2-----------2-------|--------4-----------4-------|
-----2-----------2----------|-----6-----6L-6--------6L---|
--4-----------5-------------|--7--------------7----------|
----------------------------|----------------------------|
----------------------------|----------------------------|
----------------------------|----------------------------|
--------4-------------------|--------2-----------2-------|
--6--------6--6g------------|-----2-----------2----------|
-----7--------------0-------|--0-----------2-------------|
-----------------2-----2----|----------------------------|


----------------------------|----------------------------|
----------------------------|----------------------------|
--------2-----------2-------|--4--------4L-4--------4L---|
-----2-----------2----------|--4h-6-----------6----------|
--4-----------5-------------|--7-----7-----------7-------|
----------------------------|----------------------------|


----------------------------------------------------------------------------|
----------------------------------------------------------------------------|
--4--------------------------4--------4h-6h-4-------------------------------|
-----------6-----------------------------------6--------6h-------7----------|
--------------------7-------------------------------------------------------|
----------------------------------------------------------------------------|

Verse 1
----------------------------|----------------------------|
----------------------------|----------------------------|
--------2-----------2-------|--------2-----------2-------|
-----2-----------2----------|-----2-----------2----------|
--0-----------2-------------|--4-----------5-------------|
----------------------------|----------------------------|


----------------------------|----------------------------|
----------------------------|----------------------------|
--------4-----------4-------|--------4-------------------|
-----6-----6L-6--------6L---|--6--------6--6g------------|
--7--------------7----------|-----7--------------0-------|
----------------------------|-----------------2-----2----|


----------------------------|----------------------------|
----------------------------|----------------------------|
--------2-----------2-------|--------2-----------2-------|
-----2-----------2----------|-----2-----------2----------|
--0-----------2-------------|--4-----------5-------------|
----------------------------|----------------------------|


----------------------------|----------------------------|
----------------------------|----------------------------|
--4--------4L-4--------4----|--------4h-6--6h-4----------|
--4h-6-----------6----------|--------6-----6-----6-------|
--7-----7-----------7-------|-----7----------------------|
----------------------------|----------------------------|


----------------------------|----------------------------|
----------------------------|----------------------------|
--------2-----------2-------|--------2-----------2-------|
-----2-----------2----------|-----2-----------2----------|
--0-----------2-------------|--4-----------5-------------|
----------------------------|----------------------------|


----------------------------|----------------------------|
----------------------------|----------------------------|
----------------------------|----------------------------|
--4h-6--6--6-----6-----4----|--4h-6--6--6L-6-------------|
--7-----7--7-----7-----7----|--7-----7--7L-7-----0-------|
--0-----0--0-----0-----0----|--0-----0--0L-0--2-----2----|


----------------------------|----------------------------|
----------------------------|----------------------------|
--------2-----------2-------|--------2-----------2-------|
-----2-----------2----------|-----2-----------2----------|
--0-----------2-------------|--4-----------5-------------|
----------------------------|----------------------------|


----------------------------|
----------------------------|
----------------------------|
--4h-6--6--6-----6-----4----|
--7-----7--7-----7-----7----|
--0-----0--0-----0-----0----|


----------------------------------------------------|----------------|
----------------------------------------------------|----------------|
--------------4-----4-----4-----6L-6L-6b----4-------|-----2-----2----|
--4h----6-----6-----6-----6-----6L-6L-6b----4-------|-----2-----2----|
--7-------------------------------------------------|--0-----2-------|
--0-------------------------------------------------|----------------|


----------------|----------------------------|----------------------------|
----------------|----------------------------|----------------------------|
-----2-----2----|--7s-9g-9--9L-9--9--9--9----|--11s13g13-13-13s14g14~-----|
-----2-----2----|----------------------------|----------------------------|
--4-----5-------|--5s-7g-7--7L-7--7--7--7----|--9s-11g11-11-11s12g12~-----|
----------------|----------------------------|----------------------------|


----------------|----------------|----------------------------|
----------------|----------------|----------------------------|
-----2-----2----|-----2-----2----|--7s-9g-9--9L-9--9--9--9----|
-----2-----2----|-----2-----2----|----------------------------|
--0-----2-------|--4-----5-------|--5s-7g-7--7L-7--7--7--7----|
----------------|----------------|----------------------------|


----------------------------|----------------------------|
----------------------------|----------------------------|
--11s13g13-13-13s14g14~-----|--------2-----------2-------|
----------------------------|-----2-----------2----------|
--9s-11g11-11-11s12g12~-----|--0-----------2-------------|
----------------------------|----------------------------|


----------------------------|----------------------------|
----------------------------|----------------------------|
--------2-----------2-------|--------4-----------4-------|
-----2-----------2----------|-----6-----6L-6--------6L---|
--4-----------5-------------|--7--------------7----------|
----------------------------|----------------------------|


----------------------------|----------------------------|
----------------------------|----------------------------|
--------4-------------------|--------2-----------2-------|
--6--------6--6g------------|-----2-----------2----------|
-----7--------------0-------|--0-----------2-------------|
-----------------2-----2----|----------------------------|


----------------------------|----------------------------|
----------------------------|----------------------------|
--------2-----------2-------|--4--------4L-4--------4L---|
-----2-----------2----------|--4h-6-----------6----------|
--4-----------5-------------|--7-----7-----------7-------|
----------------------------|----------------------------|

               Verse 2
----------------------------|----------------------------|
----------------------------|----------------------------|
--4-----4-----------4h-6----|--------2-----------2-------|
-----------6L-6-----6-------|-----2-----------2----------|
-----7-----------7----------|--0-----------2-------------|
----------------------------|----------------------------|


----------------------------|----------------------------|
----------------------------|----------------------------|
--------2-----------2-------|--------4-----------4-------|
-----2-----------2----------|-----6-----6L-6--------6L---|
--4-----------5-------------|--7--------------7----------|
----------------------------|----------------------------|


----------------------------|----------------------------|
----------------------------|----------------------------|
--------4-------------------|--------2-----------2-------|
--6--------6--6g------------|-----2-----------2----------|
-----7--------------0-------|--0-----------2-------------|
-----------------2-----2----|----------------------------|


----------------------------|----------------------------|
----------------------------|----------------------------|
--------2-----------2-------|--4--------4L-4--------4----|
-----2-----------2----------|--4h-6-----------6----------|
--4-----------5-------------|--7-----7-----------7-------|
----------------------------|----------------------------|


----------------------------|----------------------------|
----------------------------|----------------------------|
--------4h-6--6h-4----------|--------2-----------2-------|
--------6-----6-----6-------|-----2-----------2----------|
-----7----------------------|--0-----------2-------------|
----------------------------|----------------------------|


----------------------------|----------------------------|
----------------------------|----------------------------|
--------2-----------2-------|----------------------------|
-----2-----------2----------|--4h-6--6--6-----6-----4----|
--4-----------5-------------|--7-----7--7-----7-----7----|
----------------------------|--0-----0--0-----0-----0----|


----------------------------|----------------------------|
----------------------------|----------------------------|
----------------------------|--------2-----------2-------|
--4h-6--6--6L-6-------------|-----2-----------2----------|
--7-----7--7L-7-----0-------|--0-----------2-------------|
--0-----0--0L-0--2-----2----|----------------------------|


----------------------------|----------------------------|
----------------------------|----------------------------|
--------2-----------2-------|----------------------------|
-----2-----------2----------|--4h-6--6--6-----6-----4----|
--4-----------5-------------|--7-----7--7-----7-----7----|
----------------------------|--0-----0--0-----0-----0----|


----------------------------------------------------|----------------|
----------------------------------------------------|----------------|
--------------4-----4-----4-----6L-6L-6b----4-------|-----2-----2----|
--4h----6-----6-----6-----6-----6L-6L-6b----4-------|-----2-----2----|
--7-------------------------------------------------|--0-----2-------|
--0-------------------------------------------------|----------------|


----------------|----------------------------|----------------------------|
----------------|----------------------------|----------------------------|
-----2-----2----|--7s-9g-9--9L-9--9--9--9----|--11s13g13-13-13s14g14~-----|
-----2-----2----|----------------------------|----------------------------|
--4-----5-------|--5s-7g-7--7L-7--7--7--7----|--9s-11g11-11-11s12g12~-----|
----------------|----------------------------|----------------------------|


----------------|----------------|----------------------------|
----------------|----------------|----------------------------|
-----2-----2----|-----2-----2----|--7s-9g-9--9L-9--9--9--9----|
-----2-----2----|-----2-----2----|----------------------------|
--0-----2-------|--4-----5-------|--5s-7g-7--7L-7--7--7--7----|
----------------|----------------|----------------------------|


----------------------------------------------------|
----------------------------------------------------|
--11s---13g---13----13----13----x--x----------------|
----------------------------------------------------|
--9s----11g---11----11----11----x--x----------------|
--------------------------------------17s-----------|

Chorus
----------------------------|
----------------------------|
----------------------------|
--4--4-----4-----4-----4----|
--4--4-----4-----4-----4----|
--2--2-----2-----2-----2----|


----------------------------------------------------|
----------------------------------------------------|
----------------------------------------------------|
--------4-----------4-------------------------------|
--------4-----------4-----------4--4--4-----4--4----|
--------2-----------2-----------0--2--3-----0--2----|


----------------------------|
----------------------------|
----------------------------|
-----4-----4-----4-----4----|
--4--4-----4-----4-----4----|
--3--2-----2-----2-----2----|


----------------------------------------------------|
----------------------------------------------------|
----------------------------------------------------|
--------4-----------4-------------------------------|
--------4-----------4-----------4--4--4-----4--4----|
--------2-----------2-----------0--2--3-----0--2----|


----------------------------|
----------------------------|
----------------------------|
-----4-----4-----4-----4----|
--4--4-----4-----4-----4----|
--3--2-----2-----2-----2----|


----------------------------------------------------|
----------------------------------------------------|
----------------------------------------------------|
--------4-----------4-------------------------------|
--------4-----------4-----------4--4--4-----4--4----|
--------2-----------2-----------0--2--3-----0--2----|


----------------------------|
----------------------------|
----------------------------|
-----4-----4-----4-----4----|
--4--4-----4-----4-----4----|
--3--2-----2-----2-----2----|


----------------------------------------------------|
----------------------------------------------------|
----------------------------------------------------|
--------4-----------4-------------------------------|
--------4-----------4-----------4--4--4-----4--4----|
--------2-----------2-----------0--2--3-----0--2----|


----------------------------|
----------------------------|
----------------------------|
-----4-----4-----4-----4----|
--4--4-----4-----4-----4----|
--3--2-----2-----2-----2----|


----------------------------------------------------|
----------------------------------------------------|
----------------------------------------------------|
--------4-----------4-------------------------------|
--------4-----------4-----------4--4--4-----4--4----|
--------2-----------2-----------0--2--3-----0--2----|

                             Guitar Solo
----------------------------|----------------------------|----------|
----------------------------|----------------------------|----------|
----------------------------|----------------------------|--6--7----|
-----4-----4-----4-----4----|-----4-----4----------------|----------|
--4--4-----4-----4-----4----|-----4-----4--------0-------|--4--5----|
--3--2-----2-----2-----2----|-----2-----2-----2-----2----|----------|


--------------------------------------------------------------------------------
--------------------------------------------------------------------------------
--------------9-----------9s----------11g---------11----------------------------
--------------------------------------------------------------------------------
--------------7-----------7s----------9g----------9-----------------------------
--------------------------------------------------------------------------------


-----------------------|-------|-------|----------|
-----------------------|-------|-------|----------|
------11s13------------|--9L---|--9----|--6--7----|
-----------------------|-------|-------|----------|
------9s-11------------|--7L---|--7----|--4--5----|
-----------------------|-------|-------|----------|


--------------------------------------------------------------------------------
--------------------------------------------------------------------------------
--------------9-----------9s----------11g---------11----------------------------
--------------------------------------------------------------------------------
--------------7-----------7s----------9g----------9-----------------------------
--------------------------------------------------------------------------------

                    verse 3
-----------------------|-------|-------|----------------|----------------|
-----------------------|-------|-------|----------------|----------------|
------11s13------------|--9L---|--9----|-----2-----2----|-----2-----2----|
-----------------------|-------|-------|-----2-----2----|-----2-----2----|
------9s-11------------|--7L---|--7----|--0-----2-------|--4-----5-------|
-----------------------|-------|-------|----------------|----------------|


----------------------------|----------------------------|----------------|
----------------------------|----------------------------|----------------|
--7s-9g-9--9L-9--9--9--9----|--11s13g13-13-13s14g14~-----|-----2-----2----|
----------------------------|----------------------------|-----2-----2----|
--5s-7g-7--7L-7--7--7--7----|--9s-11g11-11-11s12g12~-----|--0-----2-------|
----------------------------|----------------------------|----------------|


----------------|----------------------------|
----------------|----------------------------|
-----2-----2----|--7s-9g-9--9L-9--9--9--9----|
-----2-----2----|----------------------------|
--4-----5-------|--5s-7g-7--7L-7--7--7--7----|
----------------|----------------------------|


----------------------------------------------------|
----------------------------------------------------|
--11s---13g---13----13----13----x--x----------------|
----------------------------------------------------|
--9s----11g---11----11----11----x--x----------------|
--------------------------------------17s-----------|

Chorus
----------------------------|
----------------------------|
----------------------------|
--4--4-----4-----4-----4----|
--4--4-----4-----4-----4----|
--2--2-----2-----2-----2----|


----------------------------------------------------|
----------------------------------------------------|
----------------------------------------------------|
--------4-----------4-------------------------------|
--------4-----------4-----------4--4--4-----4--4----|
--------2-----------2-----------0--2--3-----0--2----|


----------------------------|
----------------------------|
----------------------------|
-----4-----4-----4-----4----|
--4--4-----4-----4-----4----|
--3--2-----2-----2-----2----|


----------------------------------------------------|
----------------------------------------------------|
----------------------------------------------------|
--------4-----------4-------------------------------|
--------4-----------4-----------4--4--4-----4--4----|
--------2-----------2-----------0--2--3-----0--2----|


----------------------------|
----------------------------|
----------------------------|
-----4-----4-----4-----4----|
--4--4-----4-----4-----4----|
--3--2-----2-----2-----2----|


----------------------------------------------------|
----------------------------------------------------|
----------------------------------------------------|
--------4-----------4-------------------------------|
--------4-----------4-----------4--4--4-----4--4----|
--------2-----------2-----------0--2--3-----0--2----|


----------------------------|
----------------------------|
----------------------------|
-----4-----4-----4-----4----|
--4--4-----4-----4-----4----|
--3--2-----2-----2-----2----|


----------------------------------------------------|
----------------------------------------------------|
----------------------------------------------------|
--------4-----------4-------------------------------|
--------4-----------4-----------4--4--4-----4--4----|
--------2-----------2-----------0--2--3-----0--2----|


----------------------------|
----------------------------|
----------------------------|
-----4-----4-----4-----4----|
--4--4-----4-----4-----4----|
--3--2-----2-----2-----2----|


----------------------------------------------------|
----------------------------------------------------|
----------------------------------------------------|
--------4-----------4-------------------------------|
--------4-----------4-----------4--4--4-----4--4----|
--------2-----------2-----------0--2--3-----0--2----|


----------------------------|
----------------------------|
----------------------------|
-----4-----4-----4-----4----|
--4--4-----4-----4-----4----|
--3--2-----2-----2-----2----|


----------------------------------------------------|
----------------------------------------------------|
----------------------------------------------------|
--------4-----------4-------------------------------|
--------4-----------4-----------4--4--4-----4--4----|
--------2-----------2-----------0--2--3-----0--2----|

Outro
----------------------------|
----------------------------|
----------------------------|
-----4-----4-----4-----4----|
--4--4-----4-----4-----4----|
--3--2-----2-----2-----2----|


----------------------------------------------------|
----------------------------------------------------|
----------------------------------------------------|
--------4-----------4-------------------------------|
--------4-----------4-----------4--4--4-----4--4----|
--------2-----------2-----------0--2--3-----0--2----|


----------------------------|
----------------------------|
----------------------------|
-----4-----4-----4-----4----|
--4--4-----4-----4-----4----|
--3--2-----2-----2-----2----|


----------------------------------------------------|
----------------------------------------------------|
----------------------------------------------------|
--------4-----------4-------------------------------|
--------4-----------4-----------4--4--4-----4--4----|
--------2-----------2-----------0--2--3-----0--2----|


----------------------------|
----------------------------|
----------------------------|
-----4-----4-----4-----4----|
--4--4-----4-----4-----4----|
--3--2-----2-----2-----2----|


----------------------------------------------------|
----------------------------------------------------|
----------------------------------------------------|
--------2--2--------2--2--------2--2--------2--2----|
--------2--2--------2--2--------2--2--------2--2----|
--------4--4--------4--4--------4--4--------4--4----|


----------------------------------------------------|
----------------------------------------------------|
----------------------------------------------------|
--------2--2--------2--2--------2--2--------2--2----|
--------2--2--------2--2--------2--2--------2--2----|
--------5--5--------5--5--------5--5--------5--5----|


----------------------------------------------------|
----------------------------------------------------|
--------4--4--------4--4----------------------------|
--------4--4--------4--4----------------------------|
--------2--2--------2--2----------------------------|
--------------------------------0-----3-----2-------|


----------------------------|
----------------------------|
----------------------------|
-----4-----4-----4-----4----|
--4--4-----4-----4-----4----|
--3--2-----2-----2-----2----|


----------------------------------------------------|
----------------------------------------------------|
----------------------------------------------------|
--------4-----------4-------------------------------|
--------4-----------4-----------4--4--4-----4--4----|
--------2-----------2-----------0--2--3-----0--2----|


----------------------------|
----------------------------|
----------------------------|
-----4-----4-----4-----4----|
--4--4-----4-----4-----4----|
--3--2-----2-----2-----2----|


----------------------------------------------------|
----------------------------------------------------|
----------------------------------------------------|
--------4-----------4-------------------------------|
--------4-----------4-----------4--4--4-----4--4----|
--------2-----------2-----------0--2--3-----0--2----|


----------------------------|
----------------------------|
----------------------------|
-----4-----4-----4-----4----|
--4--4-----4-----4-----4----|
--3--2-----2-----2-----2----|


----------------------------------------------------|
----------------------------------------------------|
----------------------------------------------------|
--------2--2--------2--2--------2--2--------2--2----|
--------2--2--------2--2--------2--2--------2--2----|
--------4--4--------4--4--------4--4--------4--4----|


----------------------------------------------------|
----------------------------------------------------|
----------------------------------------------------|
--------2--2--------2--2--------2--2--------2--2----|
--------2--2--------2--2--------2--2--------2--2----|
--------5--5--------5--5--------5--5--------5--5----|


----------------------------------------------------|
----------------------------------------------------|
--------4--4--------4--4----------------------------|
--------4--4--------4--4----------------------------|
--------2--2--------2--2----------------------------|
--------------------------------0-----3-----2-------|


----------------------------|-------|-------||
----------------------------|-------|-------||
----------------------------|-------|-------||
-----------4L-4L------------|--4L---|--4----||
-----------4L-4L------------|--4L---|--4----||
--3--2-----2L-2L------------|--2L---|--2----||

[ Privacy | About us ]

Welcome to the guitar community

Why join and log in?
- Get songbook with favourite songs
- Get custom made front page
- Submit chords and tabs
- Submit guitar-cover videos
- Get a lot of thumbs up for your work

Songbook

Last visited songs

Site
Home
Search
Community
Submit chords

Video

No video for this page. Check out how you can submit guitar-cover videos here

Search tabs and chords

Browse by artist

A B C D E F G H I J K L M N O P Q R S T U V W X Y Z #


Menu

Search

Video

Bookmark

Login