Log in

One click and you are in

Login with Facebook Login with Google

Why sign up and log in

Guitar Tabs Explorer
Metallica tabs for Four horsemen  acoustic

Guitar tabs with lyrics

Four horsemen (acoustic)
Tuned 1/2 step down

|---------------------------|
|---------------------------|
|o-------------------------o|
|o---------------5---7-7-7-o|
|--7-5-7-5-7-5-7---5--------|
|--0-0-0-0-0-0-0-0-0-0-0-0--|

|---------------------------|
|---------------------------|
|o-------------------------o|
|o-------------------------o|
|--7-5-7-5-7-5-7-5-7-5-7-5--|
|--0-0-0-0-0-0-0-0-0-0-0-0--|

|----------------------------------------|
|----------------------------------------|
|o--------------------------------------o|
|o-5-----7--5---------------------------o|
|--3--5--5--3---7-5-7-5-7-5-7-5-7-5-7-5--|
|-----3---------0-0-0-0-0-0-0-0-0-0-0-0--|

|-----------------0-----|
|-----------------0-----|
|-----------------0-----|
|--5-----7--5-----2-----|
|--3--5--5--3-----2-----|
|-----3-----------0-----|
by the last breath...

|--------0------|
|--------0------|
|--------0------|
|--5--7--2------|
|--3--5--2------|
|--------0------|
better raise...

|-----------------0-----|
|-----------------0-----|
|-----------------0-----|
|--5-----7--5-----2-----|
|--3--5--5--3-----2-----|
|-----3-----------0-----|

|------------------------------------------x-x-x---|
|------------------------------------------x-x-x---|
|o-----------------------------------------x-x-x--o|
|o9--9-9-9-9--7--7-7-7-7--5--5-5-5-5--5-4--x-x-x--o|
|-7--7-7-7-7--5--5-5-5-5--3--3-3-3-3--3-2--x-x-x---|
|------------------------------------------x-x-x---|
the horsemen are drawing...

|---------------------------|
|---------------------------|
|o-------------------------o|
|o-------------------------o|
|--7-5-7-5-7-5-7-5-7-5-7-5--|
|--0-0-0-0-0-0-0-0-0-0-0-0--|

|----------------------------------------|
|----------------------------------------|
|o--------------------------------------o|
|o-5-----7--5---------------------------o|
|--3--5--5--3---7-5-7-5-7-5-7-5-7-5-7-5--|
|-----3---------0-0-0-0-0-0-0-0-0-0-0-0--|

|-----------------0-----|
|-----------------0-----|
|-----------------0-----|
|--5-----7--5-----2-----|
|--3--5--5--3-----2-----|
|-----3-----------0-----|

interlude
|----------------------------|
|-x-x-x-x-x-x-x-x-x-x--------|
|ox-x-x-x-x-x-x-x-x-x-------o|
|ox-x-x-x-x-x-x-x-x-x-------o|
|-x-x-x-x-x-x-x-x-x-x--------|
|-0-0-0-0-0-0-0-0-0-0--------|

|------------------------------|
|---------x-x-x-x-x-x----------|
|o--------x-x-x-x-x-x---------o|
|o10/9-9--x-x-x-x-x-x---5-5---o|
|--8/7-7--x-x-x-x-x-x---7-7----|
|---------0-0-0-0-0-0----------|

|---------------------------|
|---------------------------|
|o-------------------------o|
|o-------------------------o|
|--7-5-7-5-7-5-7-5-7-5-7-5--|
|--0-0-0-0-0-0-0-0-0-0-0-0--|

|-----------------0-----|
|-----------------0-----|
|-----------------0-----|
|--5-----7--5-----2-----|
|--3--5--5--3-----2-----|
|-----3-----------0-----|
end

Sorry, I can’t do more for you, because I have fourteen years old,
I’m Mexican, and I have an acoustic guitar, and if that wasn’t
Enough, I’ve only heard it and... you know.

If you can teach me the techniques of playing guitar, or send a
Hatemail, please mail Me to: ktulu_2099_05@hotmail.com

If you can send me the ´´eye of the beholder´´, ´´damage inc.´´ or
The ´´Orion´´ complete tabs mail it to me too.

           o
          o//
         o/
        o/  |               /= slide to
       o/   |              ()= ghost note
      o/_  _|               x= dead note
        |__|
        |__|
 |      |__|
        |__|
        |__|
        |__|
        /
       / _
      /  _
     /   _ o
    /       o
   /  /------
  / _/        \_
 /_/            \_
//                \


METAL UP YOUR ASS!!!!

Almost there ...

Sign in to get your own page with links to favourite songs and more. You are just one click away...

Login with Facebook Login with Google