Log in

One click and you are in

Login with Facebook Login with Google

Why sign up and log in

Guitar Tabs Explorer
Metallica tabs for For whom the bell tolls

Solo tabs

As soon as I find out how to put the full tabs on the website, I will.
Till then, here's the solo's. The main tabs are to long for this webpage.
I play it this way in a tuned in a full step down. Im not sure what
metallica's tuning style is in this song.


Guitar  - Played at 1:17
D(---------------------------------------)
A(-14-13----------13-14-13---------------)
F(-------16-14-16----------16-14-16------)
C(---------------------------------------)
G(---------------------------------------)
D(---------------------------------------)

Guitar - Played at 2:55
D(---------------------------------------)
A(-14-13---------------------------------)
F(-------16-14-13-14-13-11-13-11-9----11-)
C(---------------------------------12----)
G(---------------------------------------)
D(---------------------------------------)

Other versions of For Whom The Bell Tolls

For whom the bell tollsTabs
For whom the bell tolls (Ver. 2)Tabs
For whom the bell tolls (Ver. 3)Tabs

Almost there ...

Sign in to get your own page with links to favourite songs and more. You are just one click away...

Login with Facebook Login with Google