Log in

One click and you are in

Login with Facebook Login with Google

Why sign up and log in

Guitar Tabs Explorer
Metallica tabs for Entire master of puppets album

Entire Master Of Puppets Album tab - Metallica

Metallica tabs for Entire master of puppets album

Guitar tabs

MASTER OF PUPPETS - THE ALBUM - METALLICA


------------------------------------------------------------------------------
------------------------------------------------------------------------------

Contents...
1. Battery                      : Bo Smith
2. Master Of Puppets            : Walker Smith
3. The Thing That Should Not Be : John Chaney
4. Welcome Home (Sanitarium)    : Walker Smith
5. Disposable Heros             : Mason O'conner
6. Lepar Messiah                : Brian Looney
7. Orion                        : Walker Smith
8. Damage, Inc.                 : Wesley Parks

------------------------------------------------------------------------------
-------------------------------  Metallica  ----------------------------------
Battery
-------
                        BATTERY by Metallica
                   From the album "Master of Puppets"

        There's about half a dozen guitar parts on the intro where Jaymz
 layered acoustics, steel strings, spanish guitars and god knows what else.
 One acoustic plays riff  1 and the rest of the layered guitars play along
 the lines of riff 2 (I Think)

Acoustic Riff 1
e-|-----------------------------------|---------------------------------------
B-|-----------------------------------|---------------------------------------
G-|-----------------------------------|---------------------------------------
D-|--3--2-----------2-(2)-------------|--2-----------0--0-(0)-----------------
A-|--2--------------0-(0)-------------|--0--------------5-(5)-----------------
E-|--0--------------1-(1)-------------|--2--------------3-(3)-----------------

Acoustic Riff 2
e-|-----------------------------------|---------------------------------------
B-|-----------------------------------|---------------------------------------
G-|--4--5--------4-----------4--5-----|--4--5--------------------5--4---------
D-|--------7--------------------------|--------7-----5------------------------
A-|-----------------------------------|---------------------------------------
E-|-----------------------------------|---------------------------------------

Acoustic Riff 2b
e-|-----------------------------------|---------------------------------------
B-|-----------------------------------|---------------------------------------
G-|--4--5--------4-h5-p4-----4--5-----|--4--5--------------------5--4---------
D-|--------7--------------------------|--------7-----5------------------------
A-|-----------------------------------|---------------------------------------
E-|-----------------------------------|---------------------------------------

Start with Acoustic Riff 1 once and then while that keeps playing Gtr II plays

 Riff 2  Riff 2b Riff2  Riff2

Then the electrics come crashing in:-

    A chord diagramE5E5                A chord diagramE5E5 A chord diagramE5E5 A chord diagramF5F5         A chord diagramGmaj7Gmaj7                     A chord diagramG5G5
e-|-----------------------------------|---------------------------------------
B-|-----------------------------------|---------------------------------------
G-|-----------------------------------|---------------------------------------
D-|--2-----------------2--2--3--------|--5-----------------5--5--5------------
A-|--2-----------------2--2--3--------|--5-----------------5--5--5------------
E-|--0-----------------0--0--1--------|--2-----------------2--2--3------------

While 2 other electrics play Riffs 2 and 2b
This continues for several bars and then

    A chord diagramE5E5    A chord diagramB5B5    A chord diagramG5G5   F#/Eb
e-|-----------------------------------|
B-|-----------------------------------|
G-|--------4--------------------------|
D-|--2-----4-----5-----4--------------|
A-|--2-----2-----5-----6--------------|
E-|--0-----------3--------------------|

Verse:

Riff 3                        A chord diagramBb5Bb5    A chord diagramA5A5                               A chord diagramE minorEm  F#/Eb
e-|--------------------------------------|------------------------------------
B-|--------------------------------------|------------------------------------
G-|--------------------------------------|------------------------------------
D-|-----------------------------8--8--7--|-----------------------------5--5--4
A-|-----------------------------8--8--7--|-----------------------------7--7--6
E-|--0-----0--0--0-----0--0--0--6--6--5--|--0-----0--0--0-----0--0--0---------
           ---t---     ---t---                    ---t---     ---t---

    A chord diagramE minorEm                        A chord diagramBb5Bb5    A chord diagramA5A5   A chord diagramF#5F#5    A chord diagramG5G5         A chord diagramAb5Ab5
e-|--------------------------------------|------------------------------------
B-|--------------------------------------|------------------------------------
G-|--------------------------------------|------------------------------------
D-|--5--------------------------8--8--7--|--4-----5-----5-----6---------------
A-|--7--------------------------8--8--7--|--4-----5-----5-----6---------------
E-|--------0--0--0-----0--0--0--6--6--5--|--2-----3-----3-----4---------------
           ---t---     ---t---

Play this twice but on the second time at the % play this
    A chord diagramA#5A#5      A chord diagramA5A5       A chord diagramA5A5       A chord diagramA5A5
e-|--------------------------------------|
B-|--------------------------------------|
G-|--------------------------------------|
D-|--8--------7--------7--------7--------|
A-|--8--------7--------7--------7--------|
E-|--6--------5--------5--------5--------|

Then Fill 1 and into the verse

Fill 1 A chord diagramE5E5    A chord diagramG5G5    A chord diagramA5A5       A chord diagramF5F5 A chord diagramF5F5 F#/Eb ?
e-|--------------------------------------|
B-|--------------------------------------|
G-|--------------------------------------|
D-|-----2-----5-----7--------------4-----|
A-|-----2-----5-----7--------3--3--6-----|
E-|-----0-----3-----5--------1--1--------|


Riff 3
e-|--------------------------------------|------------------------------------
B-|--------------------------------------|------------------------------------
G-|--------------------------------------|------------------------------------
D-|-----------------------------8--8--7--|-----------------------------5--5--4
A-|-----------------------------8--8--7--|-----------------------------7--7--6
E-|--0-----0--0--0-----0--0--0--6--6--5--|--0-----0--0--0-----0--0--0---------
           ---t---     ---t---                    ---t---     ---t---
     Lashing out  the action                Returning   the   reaction

e-|--------------------------------------|------------------------------------
B-|--------------------------------------|------------------------------------
G-|--------------------------------------|------------------------------------
D-|--4--------------------------8--8--7--|--4-----5-----5-----6---------------
A-|--6--------------------------8--8--7--|--4-----5-----5-----6---------------
E-|--------0--0--0-----0--0--0--6--6--5--|--2-----3-----3-----4---------------
           ---t---     ---t---
     Weak are ripped  and  torn   away

Lashing out the action, returning the reaction
Weak are ripped and torn away
Hipnotizing power, crushing all that cower
Battery is here to stay

With Fill 1

A chord diagramE5E5                             A chord diagramC5C5
Smashing through the boundrys, lunacy has found me
             A chord diagramF5F5 A chord diagramF5F5 F#/Eb
Cannot stop the battery


Riff 3

With Fill 1

A chord diagramE5E5                      A chord diagramC5C5
Pounding out agression, turned into obsession
             A chord diagramF5F5 A chord diagramF5F5 F#/Eb
Cannot stop the battery


Riff 3 (first 2 bars)

A chord diagramE5E5              A chord diagramB5B5      A chord diagramG5G5          F#/Eb
Cannot kill the family, battery has grounded me


Riff 3 (first 3 bars)|
                     |
A chord diagramBb5Bb5 A chord diagramF5F5 A chord diagramE5E5            |          Play this several
Bat-ter-y            |      times and then back to the next verse


Outro:
        Repeat lots             Last time
e-|--------------------------|------------------------------------------------
B-|--------------------------|------------------------------------------------
G-|--3--4--3--4--3-----------|--3--4--3--4--3--4--3--4------------------------
D-|--3--4--3--4--3--4--3-----|--3--4--3--4--3--4--3--4--------4--3--3--3--3--2
A-|--1--2--1--2--1--4--3-----|--1--2--1--2--1--2--1--2--------4--3--3--3--3--2
E-|-----------------2--1-----|--------------------------------2--1--1--1--1--0

verses

Crushing all decievers, mashing non-believers
Never ending potency
Hungry violence seeker, feeding off the weaker
Breeding on insanity


Chorus

Circle of destruction, hammer comes crushing
Powerhouse of energy
Whipping up a fury, dominating flurry
We create the battery


Chorus

        I think this is pretty close. I'm not sure about the names of the
funny chords though (marked  ?) I'm not too hot on theory!! :)

tabbed by Bo Smith

-------------------------------  Metallica  ----------------------------------
Master Of Puppets
-----------------

Tab symbols used:
        p  - pull off
        h  - hammer on        )              )\
    / or \ - slide           /  - bend      /  \ - bend and release
       vib - vibrato
        x  - rake

   A chord diagramE5E5               A chord diagramD5D5 A chord diagramDb5Db5  A chord diagramC majorC                        N.C.(A chord diagramE minorEm)
                                                    PM..............
e |----------------|---------------|---------------|----------------|
A chord diagramBB |----------------|---------------|---------------|----------------|
A chord diagramG+G |9---------------|7---6---5------|---------------|.---------------|
A chord diagramD MajorD |9---------------|7---6---5------|---------------|.---------------|
A chord diagramA augmentedA |7---------------|5---4---3------|---------------|-----7-----6----|
A chord diagramE MajorE |0---------------|---------------|---------------|-0-0---0-0---0-0|


   A chord diagramD MajorD   A chord diagramDbDb  A chord diagramC majorC         N.C.(A chord diagramE minorEm)               Play 4 times
                     PM.............................
e |-----------------|---------------|-----------------|
A chord diagramBB |7---6---5--------|---------------|-----------------|
A chord diagramG+G |7---6---5--------|---------------|----------------.|
A chord diagramD MajorD |7---6---5--------|---------------|----------------.|
A chord diagramA augmentedA |5---4---3--------|---------------|-----------------|
A chord diagramE MajorE |-----------------|0-0-7-0-0-6-0-0|5-0-4-0-3-0-2-0--|

    N.C.
    PM...............................................
e |-----------------|----------------|----------------|-----------------|
A chord diagramBB |-----------------|----------------|----------------|-----------------|
A chord diagramG+G |.----------------|----------------|----------------|----------------.|
A chord diagramD MajorD |.----------------|----------------|----------------|----------------.|
A chord diagramA augmentedA |-----2-----3-----|4-----3-----2-2-|----2-----3-----|5\4---5\4---5\4--|
A chord diagramE MajorE |-0-1---0-1---0-1-|--0-1---0-1-----|0-1---0-1---1-0-|3\2-0-3\2-0-3\2--|

  RhyFig0
   N.C.                                                           A chord diagramB5B5
   PM.............................................................
e |-----------------|----------------|----------------|----------------|
A chord diagramBB |-----------------|----------------|----------------|----------------|
A chord diagramG+G |.----------------|----------------|----------------|------------4---|
A chord diagramD MajorD |.----------------|----------------|----------------|------------4---|
A chord diagramA augmentedA |-----2-----3-----|4-----3-----2-2-|----2-----3-----|4-----3-----2---|
A chord diagramE MajorE |-0-1---0-1---0-1-|--0-1---0-1-----|0-1---0-1---0-1-|--0-1---1-0-----|

    N.C.
    PM...............................................
e |----------------|----------------|----------------|-----------------|
A chord diagramBB |----------------|----------------|----------------|-----------------|
A chord diagramG+G |----------------|----------------|----------------|----------------.|
A chord diagramD MajorD |----------------|----------------|----------------|----------------.|
A chord diagramA augmentedA |----2-----3-----|4-----3-----2-2-|----2-----3-----|5\4---5\4---5\4--|
A chord diagramE MajorE |0-1---0-1---0-1-|--0-1---0-1-----|0-1---0-1---1-0-|3\2-0-3\2-0-3\2--|

                end
             RhyFig0                                RhyFig1
                    A chord diagramE5E5                              N.C.(A chord diagramE minorEm)
                    w/ Fill 1                        PM..............
e |----------------|---------------|---------------|-----------------|
A chord diagramBB |----------------|---------------|---------------|-----------------|
A chord diagramG+G |----------------|---------------|---------------|.----------------|
A chord diagramD MajorD |----------------|2--------------|---------------|.----------------|
A chord diagramA augmentedA |5\4---5\4---5\4-|2--------------|---------------|-----------------|
A chord diagramE MajorE |3\2-0-3\2-0-3\2-|0--------------|---------------|-0-0-0-0-0-0-0-0-|

                                    end RhyFig1
   PM               PM.................
e |----------------|----------------|-----------|
A chord diagramBB |----------------|----------------|-----------|
A chord diagramG+G |----------------|----------------|----------.|
A chord diagramD MajorD |----------------|----------------|----------.|
A chord diagramA augmentedA |--5/7---8\7-5/7-|----------------|--5/7-5/7--|
A chord diagramE MajorE |0-3/5-0-6\5-3/5-|0-0-0-0-0-0-0-0-|0-3/5-3/5--|

/
   Fill 1
   PM...........................vib
e |----------------|----------------|----|
A chord diagramBB |----------------|----------------|----|
A chord diagramG+G |----------------|----------------|----|
A chord diagramD MajorD |----8-----8-----|8-----8-----8===|====|
A chord diagramA augmentedA |--7-----7-----7-|----7-----7-----|----|
A chord diagramE MajorE |0-----0-----0---|--0-----0-------|----|

\

**** 1st,2nd,3rd verses: Repeat RhyFig1 4 times, then ->

   RhyFig1A
    N.C.(A chord diagramF# minorF#m)
    PM.................               PM.................
e |-----------------|----------------|----------------|-----------|
A chord diagramBB |-----------------|----------------|----------------|-----------|
A chord diagramG+G |.----------------|----------------|----------------|----------.|
A chord diagramD MajorD |.----------------|--4-4---5\4-4-4-|----------------|--4---4---.|
A chord diagramA augmentedA |-----------------|--0-2---3\2-0-2-|----------------|--0h2-0h2--|
A chord diagramE MajorE |-2-2-2-2-2-2-2-2-|2---------------|2-2-2-2-2-2-2-2-|2----------|

        end RhyFig1A
   PM........
e |----------------|
A chord diagramBB |----------------|
A chord diagramG+G |4-4-4-4-4-4-4-4-|
A chord diagramD MajorD |4-4-4-4-4-4-4-4-|
A chord diagramA augmentedA |2-2-2-2-2-2-2-2-|
A chord diagramE MajorE |----------------|

                                                                      Repeat
                                                                  3.75 times
    A chord diagramE5E5      A chord diagramD5D5  A chord diagramE5E5                              A chord diagramC5C5   A chord diagramB5B5          A chord diagramD#5D#5  A chord diagramB5B5
    PM......         PM.......   vib    PM......          PM......
e |-----------------|------------------|-----------------|-----------------|
A chord diagramBB |-----------------|------------------|-----------------|-----------------|
A chord diagramG+G |.9-------7---9---|------------------|-----------------|--------8-------.|
A chord diagramD MajorD |.9-------7---9---|----9-------------|--------10---9---|--------8---9---.|
A chord diagramA augmentedA |-7-------5---7---|7-9---10-9h10=====|--------10---9---|--------6---9----|
A chord diagramE MajorE |-0-0-0-0---------|------------------|8-8-8-8-8----7---|8-8-8-8-----7----|

   N.C.(A chord diagramBB)          A chord diagramE5E5               A chord diagramFF                A chord diagramE5E5
   2 gtrs........                                                 PM..
e |----------------|----------------|----------------|----------------|
A chord diagramBB |----------------|----------------|----------------|----------------|
A chord diagramG+G |----------------|4---4-----------|2---2-----------|4---------------|
A chord diagramD MajorD |7-5-4---4-------|2---2-----------|3---3-----------|2---------------|
A chord diagramA augmentedA |9-7-6---6-7-6---|2---2-----------|3---3-----------|2---------------|
A chord diagramE MajorE |----------8-7---|0---0-----------|1---1-----------|0---------0-0-0-|

            A chord diagramG+G                                 A chord diagramC5C5               A chord diagramB5B5
       PM..                                             PM....   PM....
e |--------|----------------|----------------|----------------|--------|
A chord diagramBB |--------|0---------------|----------------|----------------|--------|
A chord diagramG+G |--------|0---------------|----------------|5---------------|--------|
A chord diagramD MajorD |--------|0---------------|----------------|5---------------|4-------|
A chord diagramA augmentedA |--------|----------------|----------------|3---------0-0-0-|2-0-0-0-|
A chord diagramE MajorE |2p0-0-0-|3---------------|----------------|----------------|--------|

   A chord diagramA5A5                              A chord diagramD MajorD                A chord diagramC5C5       A chord diagramBB
                                             PM....   PM....
e |---------------|---------------|2---------------|--------|---------------|
A chord diagramBB |---------------|---------------|3---------------|--------|4--------------|
A chord diagramG+G |2--------------|---------------|2---------------|--------|4--------------|
A chord diagramD MajorD |2--------------|---------------|0---------------|5-------|4--------------|
A chord diagramA augmentedA |0--------------|---------------|----------------|3-------|2--------------|
A chord diagramE MajorE |---------------|---------------|----------3-3-3-|--3-3-3-|---------------|

   A chord diagramE5E5               A chord diagramD5D5       A chord diagramC majorC                         A chord diagramE5E5
             PM....     PM..
e |----------------|--------|----------------|--------|----------------|
A chord diagramBB |----------------|--------|5---------------|--------|----------------|
A chord diagramG+G |9---------------|7-------|5---------------|--------|4---4-----------|
A chord diagramD MajorD |9---------------|7-------|5---------------|--------|2---2-----------|
A chord diagramA augmentedA |7---------------|5-------|3---------------|--------|2---2-----------|
A chord diagramE MajorE |0---------0-0-0-|----0-0-|----------------|--------|0---0-----------|

   A chord diagramFF                A chord diagramE5E5                        A chord diagramC majorC
                              PM.............
e |----------------|----------------|--------|----------------|
A chord diagramBB |----------------|----------------|--------|5---------------|
A chord diagramG+G |2---2-----------|4---------------|--------|5---------------|
A chord diagramD MajorD |3---3-----------|2---------------|--------|5---------------|
A chord diagramA augmentedA |3---3-----------|2---------------|--------|3---------------|
A chord diagramE MajorE |1---1-----------|0---------0-0-0-|2p0-0-0-|----------------|

   (A chord diagramC majorC)              A chord diagramE5E5               A chord diagramFF

e |----------------|----------------|----------------|
A chord diagramBB |(5)-------------|----------------|----------------|
A chord diagramG+G |(5)-------------|4---4-----------|2---2-----------|
A chord diagramD MajorD |(5)-------------|2---2-----------|3---3-----------|
A chord diagramA augmentedA |(3)-------------|2---2-----------|3---3-----------|
A chord diagramE MajorE |----------------|0---0-----------|1---1-----------|

After verse 1, play RhyFig0, then go back and play verse 2
After verse 2, pause for vocal (Master, Master...), then go to Coda 1
After verse 3, go to Coda 2

Coda 1:

  RhyFig2
   A chord diagramE minorEm       A chord diagramD MajorD                   A chord diagramCadd9Cadd9              Amsus2   A chord diagramB7B7
                     /3\
e |--------|--------0h2p0----3-|------------------|-----------------|
A chord diagramBB |--------|----3--------3-----|------3---3-----0-|(0)--0-------0---|
A chord diagramG+G |------0-|--2---2--------2p0-|(0)-0---0---0-----|---2-------2-----|
A chord diagramD MajorD |----2---|0------------------|--------------2---|-----------------|
A chord diagramA augmentedA |--2-----|-------------------|-3----------------|-0-----0-2-----2-|
A chord diagramE MajorE |0-------|-------------------|------------------|-----------------|

          end
      RhyFig2 w/RhyFig2    (0vol<<< = volume swell from vol off)
  B7/D#       A chord diagramE minorEm
              0vol<<<< 0vol<<<<<<<<<< 0vol<<<<<<<<<< 0vol<< 0vol<<< 0vol<<<<
e |---------||--------|--------------|--------------|--------------|--------|
A chord diagramBB |(0)--0---||--------|--------------|--------------|--------------|--------|
A chord diagramG+G |---2-----||--------|--------------|--------------|2------4------|8-------|
A chord diagramD MajorD |-1-------||2-------|4-------------|5-------------|--------------|--------|
A chord diagramA augmentedA |---------||--------|--------------|--------------|--------------|--------|
A chord diagramE MajorE |-------3-||--------|--------------|--------------|--------------|--------|

  Rhyfig2a
   w/ RhyFig2 2 times
    A chord diagramE minorEm                     A chord diagramD MajorD
   2gtrs
e |-----19/22--19--------|20---17-------------------20---17--------|
A chord diagramBB |-20---------20---20---|22---19---19---19-19-19---22---19---19---|
A chord diagramG+G |-21--------------21---|----------19---19-19-19-------------19---|
A chord diagramD MajorD |----------------------|-----------------------------------------|
A chord diagramA augmentedA |----------------------|-----------------------------------------|
A chord diagramE MajorE |----------------------|-----------------------------------------|

  A chord diagramCadd9Cadd9                                     Amsus2

e |19---15-------------------19---15--------|17---15h17p15-14--------|
A chord diagramBB |20---17---17---17-17-17---20---17---17---|19---17h19p17-16---17---|
A chord diagramG+G |----------17---17-17-17-------------17---|-------------------17---|
A chord diagramD MajorD |-----------------------------------------|------------------------|
A chord diagramA augmentedA |-----------------------------------------|------------------------|
A chord diagramE MajorE |-----------------------------------------|------------------------|

                                           end
   A chord diagramB7B7                  B7/D#            RhyFig2a

e |----------14--------|14---16---17---19----|
A chord diagramBB |16---17--------17---|16---17---19---20----|
A chord diagramG+G |16---17--/19---17---|---------------------|
A chord diagramD MajorD |--------------------|---------------------|
A chord diagramA augmentedA |--------------------|---------------------|
A chord diagramE MajorE |--------------------|---------------------|

Repeat RhyFig2a

   w/ RhyFig2 2 times & Fill 1                                full full
   A chord diagramE minorEm               A chord diagramD MajorD                     /----3----\  A chord diagramCadd9Cadd9    )\  )\
                    vib         /--3--\  /     /--3--\ vib     /  \/  \
e |----------------|15------15-17-15----19-15-12h15p12|----------------|
A chord diagramBB |17---------17-19|------19---------19---------------|13-----15-------|
A chord diagramG+G |----------------|----------------------------------|----------------|
A chord diagramD MajorD |----------------|----------------------------------|----------------|
A chord diagramA augmentedA |----------------|----------------------------------|----------------|
A chord diagramE MajorE |----------------|----------------------------------|----------------|

                                              all full bends of A chord diagramG+G string only
   Amsus2                 A chord diagramB7B7            B7/D#                A chord diagramE minorEm
                                           )  )  )
                          vib             / \/ \/ \          vib
e |15-14------15-14---------------------|-------------------|-------------|
A chord diagramBB |------12---------12h15p12------------|15-----------------|-------------|
A chord diagramG+G |-------------------------------12-14-|14-------p12----12-|-------------|
A chord diagramD MajorD |-------------------------------------|-------------14----|14--------12-|
A chord diagramA augmentedA |-------------------------------------|-------------------|-------------|
A chord diagramE MajorE |-------------------------------------|-------------------|-------------|

   A chord diagramD MajorD                                          A chord diagramCadd9Cadd9
                                      /--3--\ vib
e |------------------------------------------|------------------------------|
A chord diagramBB |------------------------------------------|------------------------------|
A chord diagramG+G |12----14-12---11--------14---12---11h12p11|------------------------------|
A chord diagramD MajorD |-------------------12---------------------|10------------9-10--------9-10|
A chord diagramA augmentedA |------------------------------------------|-----------12-----------------|
A chord diagramE MajorE |------------------------------------------|------------------------------|

  Amsus2                   A chord diagramB7B7                 B7/D#
    /---3---\   /---3---\                       /--3--\
e |----------------------------------15---14--|11h12p11-----------/19--|
A chord diagramBB |------------------------12-----------------|---------12---10--------|
A chord diagramG+G |----------------11--12-------12------------|------------------------|
A chord diagramD MajorD |12--10--12--14-----------------------------|------------------------|
A chord diagramA augmentedA |-------------------------------------------|------------------------|
A chord diagramE MajorE |-------------------------------------------|------------------------|

/
   Fill 2                 Fill 3                 Fill 4
                          vib
e |15------------|     e |--------------|     e |15-----------|-14---------|
A chord diagramBB |17------------|     A chord diagramBB |17------------|     A chord diagramBB |17-----------|(17)--------|
A chord diagramG+G |--------------|     A chord diagramG+G |--------------|     A chord diagramG+G |-------------|------------|
A chord diagramD MajorD |--------------|     A chord diagramD MajorD |--------------|     A chord diagramD MajorD |-------------|------------|
A chord diagramA augmentedA |--------------|     A chord diagramA augmentedA |--------------|     A chord diagramA augmentedA |-------------|------------|
A chord diagramE MajorE |--------------|     A chord diagramE MajorE |--------------|     A chord diagramE MajorE |-------------|------------|

\

Play RhyFig2a twice, with Fill 3 first time

Play RhyFig2 twice, with distortion, and
                    chord progression: E5,D5,C5,A5,B5,D#5
                                                                    end
                                    RhyFig3                       RhyFig3
   A chord diagramE5E5                               A chord diagramF#5F#5 A chord diagramG5G5 A chord diagramF#5F#5   A chord diagramG5G5   A chord diagramF#5F#5 A chord diagramG5G5 A chord diagramF#5F#5  A chord diagramG5G5 A chord diagramC#5C#5
   PM.........................       PM................................
e |----------------|----------------|-----------------|----------------|
A chord diagramBB |----------------|----------------|-----------------|----------------|
A chord diagramG+G |4-4-4-4-4-4-4-4-|4-4-4-4-4-4-4-4-|-----------------|----------------|
A chord diagramD MajorD |2-2-2-2-2-2-2-2-|2-2-2-2-2-2-2-2-|-----------------|--------------6-|
A chord diagramA augmentedA |2-2-2-2-2-2-2-2-|2-2-2-2-2-2-2-2-|4-4-5-4-4-4-5-4-4|4-4-5-4-4-4-5-4-|
A chord diagramE MajorE |0-0-0-0-0-0-0-0-|0-0-0-0-0-0-0-0-|2-2-3-2-2-2-3----|2-2-3-2-2-2-3---|

Repeat RhyFig3 once alone, then 4 times with vocals.

   A chord diagramG+G                                 F3               pick
                                                      slide    slide
e |----------------|----------------|----------------|----------------|
A chord diagramBB |----------------|----------------|----------------|----------------|
A chord diagramG+G |4---------------|(4)-------------|3---------------|----------------|
A chord diagramD MajorD |5---------------|(5)-------------|4---------------|----------------|
A chord diagramA augmentedA |5---------------|(5)-------------|4---------------|----------------|
A chord diagramE MajorE |3---------------|(3)-------------|2---------------|X\\\\\\-17\\\\\-|

  w/ RhyFig1 4 times
   N.C. (A chord diagramE minorEm)
    /--3--\  /--3--\  /--3--\  /--3--\   /--3--\  /--3--\  /--3--\  /--3--\
e |17p12----------12-17p12----------12-|17p12----------12-15p12----------12-|
A chord diagramBB |------13-12-13----------13-12-13----|------13-12-13----------13-12-13----|
A chord diagramG+G |------------------------------------|------------------------------------|
A chord diagramD MajorD |------------------------------------|------------------------------------|
A chord diagramA augmentedA |------------------------------------|------------------------------------|
A chord diagramE MajorE |------------------------------------|------------------------------------|

    /--3--\  /--3--\  /--3--\  /--3--\   /--3--\
e |17p12----------12-17p12----------12-|17p12-------12-12-15p12----|
A chord diagramBB |------13-13-12----------13-12-13----|------13-12-------------13-|
A chord diagramG+G |------------------------------------|---------------------------|
A chord diagramD MajorD |------------------------------------|---------------------------|
A chord diagramA augmentedA |------------------------------------|---------------------------|
A chord diagramE MajorE |------------------------------------|---------------------------|

     /--3--\              /--3--\               /--3--\
e |----19-19-17-17-17-17-15-15-15-14-14-14-14-|17-17-17-15-15-15-14-|
A chord diagramBB |/17----------------------------------------|---------------------|
A chord diagramG+G |-------------------------------------------|---------------------|
A chord diagramD MajorD |-------------------------------------------|---------------------|
A chord diagramA augmentedA |-------------------------------------------|---------------------|
A chord diagramE MajorE |-------------------------------------------|---------------------|

                             f u l l
                             )  )  )
                            / \/ \/   /--3--\             /--3--\    sl
e |14-14-14-14------------|-------------------17h19\\---|-----------------|
A chord diagramBB |------------15---15-17-|17--------17p15p14-------\\17|15p14------------|
A chord diagramG+G |-----------------------|-----------------------------|------16-14\\\\--|
A chord diagramD MajorD |-----------------------|-----------------------------|-----------------|
A chord diagramA augmentedA |-----------------------|-----------------------------|-----------------|
A chord diagramE MajorE |-----------------------|-----------------------------|-----------------|

      trem bar
                      /-1-\    /---2---\
         \    /\     /     \  /         \     /\     /\
   *       \3/  \1.5/       \/           \1.5/  \1.5/  \1.5
e |X--------------------------|------------------------------------|
A chord diagramBB |---------------------------|------------------------------------|
A chord diagramG+G |---------------------------|------------------------------2--4--|
A chord diagramD MajorD |---------------------------|------------------------------------|
A chord diagramA augmentedA |---------------------------|------------------------------------|
A chord diagramE MajorE |---------------------------|------------------------------------|

   * This note produced by pulling string off edge of fretboard and
     "fretting" it against pickup.

  full
    )
   /         gr                vib
e |------------------------|--------------|--------------------------------|
A chord diagramBB |------------------------|--------------|/15--13--12------13--12------12-|
A chord diagramG+G |2--4--3--2-0h2----------|--------------|-------------14----------14-----|
A chord diagramD MajorD |----------------4--2----|2-h4----------|--------------------------------|
A chord diagramA augmentedA |---------------------(2)|--------------|--------------------------------|
A chord diagramE MajorE |------------------------|--------------|--------------------------------|

                            /--3--\
e |---------------------------------|------------------------|
A chord diagramBB |------------12----12-12-12-12-12-|12-15-13-12-15-13-12-13-|
A chord diagramG+G |11--12--14-----------------------|------------------------|
A chord diagramD MajorD |---------------------------------|------------------------|
A chord diagramA augmentedA |---------------------------------|------------------------|
A chord diagramE MajorE |---------------------------------|------------------------|

                     gr
e |12----------12-------------|14-------14-------15-15-------|
A chord diagramBB |---15-15-13----15-13h15-15-|---17-15----15-17-------17/19-|
A chord diagramG+G |---------------------------|------------------------------|
A chord diagramD MajorD |---------------------------|------------------------------|
A chord diagramA augmentedA |---------------------------|------------------------------|
A chord diagramE MajorE |---------------------------|------------------------------|

  w/ RhyFig1A
   N.C. (A chord diagramF# minorF#m)
                /--3--\
e |17-------19-17-------17----------19-17-------|17----------19-17-------|
A chord diagramBB |---20-19-------19-19----21-19-19-------19-19-|---21-19-19-------19-19-|
A chord diagramG+G |---------------------------------------------|------------------------|
A chord diagramD MajorD |---------------------------------------------|------------------------|
A chord diagramA augmentedA |---------------------------------------------|------------------------|
A chord diagramE MajorE |---------------------------------------------|------------------------|

   all bends in next 2 ---> full    full    full     1.5
measures on A chord diagramBB string only     )       )       )       )
                             /       /       /       /
e |17----------19-17-------|14--14------14--------------14--|
A chord diagramBB |---21-19-19-------19-19-|17------17------17-(17)\17------|
A chord diagramG+G |------------------------|--------------------------------|
A chord diagramD MajorD |------------------------|--------------------------------|
A chord diagramA augmentedA |------------------------|--------------------------------|
A chord diagramE MajorE |------------------------|--------------------------------|

           half        full
             )           )      full    full    full          full
            /           /         )       )       )             )
    /---3--\    /---3--\         /       /       /   /--3--\   /
e |19-p14------19-p14--14------|----14------14------14-14-14------14-14-|
A chord diagramBB |--------17----------17------|17------17------17------------17--------|
A chord diagramG+G |----------------------------|----------------------------------------|
A chord diagramD MajorD |----------------------------|----------------------------------------|
A chord diagramA augmentedA |----------------------------|----------------------------------------|
A chord diagramE MajorE |----------------------------|----------------------------------------|

   full    full    full    full     full    full    full    full
     )       )       )       )        )       )       )       )
    /       /       /       /        /       /       /       /
e |----15------15------15------15--|----17------17------18------18--|
A chord diagramBB |18------18------18------18------|20------20------21------21------|
A chord diagramG+G |--------------------------------|--------------------------------|
A chord diagramD MajorD |--------------------------------|--------------------------------|
A chord diagramA augmentedA |--------------------------------|--------------------------------|
A chord diagramE MajorE |--------------------------------|--------------------------------|

   full      2      1.5  trem bar          depress & vibrate
     )       )       )                     bar simultaneously
    /       /       /     /\/\/\/\/\/\/\/\
e |----19------19--22--|(22)--------------\/\/\--------------|
A chord diagramBB |22------22----------|-----------------------\/\/\---------|
A chord diagramG+G |--------------------|----------------------------\/\/\----|
A chord diagramD MajorD |--------------------|---------------------------------\/\-|
A chord diagramA augmentedA |--------------------|-------------------------------------|
A chord diagramE MajorE |--------------------|-------------------------------------|

    N.C.                                                           A chord diagramB5B5
    PM...........................     PM...........................
e |-----------------|----------------|----------------|-----------------|
A chord diagramBB |-----------------|----------------|----------------|-----------------|
A chord diagramG+G |.----------------|----------------|----------------|----------------.|
A chord diagramD MajorD |.----3-----3-----|3-----3---------|----3-----3-----|3-----3-----4---.|
A chord diagramA augmentedA |-----3-----3-----|3-----3-----2-2-|----3-----3-----|3-----3-----2----|
A chord diagramE MajorE |-0-0-1-0-0-1-0-0-|1-0-0-1-0-0-----|0-0-1-0-0-1-0-0-|1-0-0-1-0-0------|

   A chord diagramE5E5                N.C.
   PM..............  PM...................         PM..................
e |----------------|-----------------|----------------|----------------|
A chord diagramBB |----------------|-----------------|----------------|----------------|
A chord diagramG+G |----------------|.----------------|----------------|----------------|
A chord diagramD MajorD |----------------|.--------------2-|4-5-------------|----------------|
A chord diagramA augmentedA |2-2-2-2-2-2-2-2-|---------2-3-5---|----3--------3-3|3-2-3-5-3-2-----|
A chord diagramE MajorE |0-0-0-0-0-0-0-0-|-0-2-3-5---------|----------------|------------3-2-|

                                2 gtrs
   PM..............  PM.....................         PM..................
e |-----------------|------------------|----------------|----------------|
A chord diagramBB |-----------------|------------------|----------------|----------------|
A chord diagramG+G |----------------.|------------------|2-4-------------|----------------|
A chord diagramD MajorD |----------------.|------------4-2/5-|4-5-2--------2-2|2-0-2-4-2-0-----|
A chord diagramA augmentedA |-----------------|--------2-3-5-----|----3--------3-3|3-2-3-5-3-2-3-2-|
A chord diagramE MajorE |0-0-0-0-0-0-0-00-|0-2-3-5-----------|----------------|------------3-2-|

                                           A chord diagramC majorC
   PM......................................         PM..................
e |----------------|------------------|----------------|----------------|
A chord diagramBB |----------------|------------------|----5-----------|----------------|
A chord diagramG+G |----------------|------------------|2-4-5-----------|----------------|
A chord diagramD MajorD |----------------|------------4-2/5-|4-5-5-----------|----------------|
A chord diagramA augmentedA |----------------|--------2-3-5-----|----3--------3-3|3-2-3-5-3-2-----|
A chord diagramE MajorE |0-0-0-0-0-0-0-00|0-2-3-5-----------|----------------|------------3-2-|

   A chord diagramE5E5

e |----------------|----------------|
A chord diagramBB |----------------|----------------|   Go back
A chord diagramG+G |4---------------|------2---------|   and play
A chord diagramD MajorD |2------------5-5|5-4-5---5-4-2-4-|   verse 3
A chord diagramA augmentedA |2------------3-3|3-2-3-5-3-2-----|
A chord diagramE MajorE |0---------------|------------3-2-|

Coda 2:

Play RhyFig1 4 times
                                     A chord diagramE5E5
                                     w/ Laughter.....
e |----------------|----------------|----------------|
A chord diagramBB |Ha!-Ha!-Ha!-Ha!-|----------------|----------------|
A chord diagramG+G |----------------|----------------|4---------------|
A chord diagramD MajorD |----------------|----------------|2---------------|
A chord diagramA augmentedA |----------------|5\4---5\4---5\4-|2---------------|
A chord diagramE MajorE |----------------|3\2-0-3\2-0-3\2-|0---------------|

that should be pretty close, i think some parts are alittle off . have fun
     tabbed by Walker Smith

-------------------------------  Metallica  ----------------------------------
The Thing That Should Not Be
----------------------------

   Riff 1:        Riff 2:
E-|-------------|-------------------------|
B-|-------------|-------------------------|
G-|.-----------.|.-----------------------.|
D-|.-----------.|.-----------------------.|
A-|--0--2-------|--0--2----1-----2-----3--|
E-|--0--2-------|--0--2--------2-----2----|

      Riff 3:               (x 4)  Riff 4:
E---|----------------------------|--------------------------------|
B---|----------------------------|--------------------------------|
G---|.-------3-----4-----5------.|.-------3------4------5--------.|
D---|.-------3-----4-----5------.|.-------3------4------5--------.|
A-0-|--0-1-2-1-----2-----3----0--|--0-1-2-1------2------3------0--|
E-0-|--0-1-2-----2-----2------0--|--0-1-2----1-2----1-2----1-2-0--|

 Riff 5:
E---------------------------------------------------------------------
B---------------------------------------------------------------------
G--5-------5---5---1-------1---1---2-------2---2----------------------
D--5-------5---5---1-------1---1---2-------2---2----4-----------------
A----7-7-7---7-------3-3-3---3-------4-4-4---4------4-1-1-1-1-1-1-1-1-
E----7-7-7---7-------3-3-3---3-------4-4-4---4--------1-1-1-1-1-1-1-1-


Verse
=====

 Riff 6: (x 2)
E----------------------------------------
B----------------------------------------
G----------------------------------------
D--2--0-----------------------------(0)-- ...let ring
A--2--0-----------------------------(0)--
E--2--0-----------------------------(0)--


Riff 1, Riff 2, Riff 3 (x 2)

Riff 1, Riff 2, Riff 3


Chorus


Riff 5 (x 2)

 Riff 7:
A chord diagramE MajorE|-------------------------------------------------|-----------------|
A chord diagramBB|-------------------------------------------------|-----------------|
A chord diagramG+G|.-2---3-----6---6---------------------------6---.|-2---3-------2---|
A chord diagramD MajorD|.-2---3-----6---6---------------------------6---.|-2---3---1---2---|
A chord diagramA augmentedA|--0---1---5-6-5-6-0-0-0-0-0-0-0-0-0-0-0-0-5-6-5--|-0---1---1---0---|
A chord diagramE MajorE|----------5-6-5-6-0-0-0-0-0-0-0-0-0-0-0-0-5-6-5--|---------1-------|


Riff 3 (x 2)

Riff 4 (x 2)

Verse

Chorus

  Riff 8: (x 4)
E-----------------------------------|
B-----------------------------------|
G----6---6--------------------------|
D----6---6--------------------------|
A--5-6-5-6-0-0-0-0-0-0-0-0-0-0-0-0--|
E--5-6-5-6-0-0-0-0-0-0-0-0-0-0-0-0--|

              Riff 9:
E-----------|----------------------------------------|
B-----------|----------------------------------------|
G----6---6--|----------------------------------------|
D----6---6--|----------------------------------------|
A--5-6-5-6--|----------------------------------------|
E--5-6-5-6--|----------------------------------------|

E----------|--------------|------------------
B----------|--------------|------------------
G--2---3---|--------------|--2---3-------2---
D--2---3---|--( Riff 9 )--|--2---3---1---2---
A--0---1---|--------------|--0---1---1---0---
E----------|--------------|----------1-------


Riff 4 (x 4)

Verse

Chorus

Riff 9, Riff 8 (x 10)
have fon and thx walker for lettin me be lead in ur band.=-)
       tabbed by john chaney
-------------------------------  Metallica  ----------------------------------
Welcome Home (Sanitarium)
-------------------------
Tabbed by Vassilis Tzerpos

🏷Legend:
<> = Natural Harmonics         s = slide
~ = Cue notes                  p = pull-off
__3__ = Triads                 h = hammer-on
^ = bend                       r = release bend
x = dumped string              % = pick continuously and rapidly
/ = slide up to the note indicated from a few frets below
\ = slide back a few frets from the note indicated
+ = rapid hammer and pull e.g. 8 = 8 h 10 p 8
                                    +

The song is in exact timing.

Intro, chorus and rhythm figures 8th = ---- (except else indicated).
Solos 8th = -------- (except solo 1)
Blank columns do not count in timing. They are just used to separate
adjacent fret numbers.

                        _3_
-------<12>---------3---353-2---|-------<12>---------2---2-----3-|
-----------<12>-----------------|-----------<12>---------0-------|
--------------------------------|--------------------------------|
--------------------------------|--------------------------------|
--------------------------------|--------------------------------|
0-------------------------------|0-------------------------------|

0------<12>---------------------|-------<12>---------------------|
-----------<12>-----------------|-----------<12>-----------------|
--------------------------------|--------------------------------|
--------------------------------|--------------------------------|
--------------------------------|--------------------------------|
0-------------------------------|0-------------------------------|

-------<12>---------------------|-------<12>---------------------|
-----------<12>-----------------|-----------<12>-----------------|
--------------------------------|---------------<12>-------------|
--------------------------------|--------------------------------|
--------------------------------|--------------------------------|
0-------------------------------|0-------------------------------|

Rhy. Fig. 1 (8th=--)
----------------|----------------|--------|   Repeat this figure 4 times
----------------|----------------|--------|   alone, then 4 times under
------0-------0-|------0---------|--------|   the solo and 6 times under
----4-------5---|----7-------0---|--0-----|   the verse. The notes with
--2-------3-----|--5-------4-----|2-----0-|   a ~ under them are cue notes.
0-------0-------|0-------5---5s3-|--3s5---|   They hardly take time to sound
                             ~      ~

Now comes solo 1. Timing isn't always exact but is close.

------------------------------|--------10-s12--15-s17--17----|----------------|
------------------------------|10-s12------------------------|----------------|
--------11--12--9---------12--|------------------------------|----------------|
----9-------------------------|------------------------------|----------------|
7-----------------------------|------------------------------|----------------|
------------------------------|------------------------------|----------------|

--15--15--12--12s14---12^-r---|---12---------------__3___----|----------------|
------------------------------|15-----15--13--13---121312----|----------------|
------------------------------|--------------------------14--|12-s11----------|
------------------------------|------------------------------|--------12------|
------------------------------|------------------------------|------------14--|
------------------------------|------------------------------|----------------|

------------------------------|----19-----19-------------17--|171514----------|
------------------------------|--17---------17---------------|------171514----|
12s14-------------------------|16-------------16-s14-14------|------------1614|
------------------------------|------------------------------|----------------|
------------------------------|------------------------------|----------------|
------------------------------|------------------------------|----------------|

                               __3___
----------------------------12|101210----------------5-------|----3-----------|
--------------------------13--|------13--12------------------|----------------|
12^-----r---------------14----|------------------6-----------|4-----------6---|
----------------------14------|-------------/7----------/5---|-------/7-------|
------------------------------|------------------------------|----------------|
------------------------------|------------------------------|----------------|

Verses:  (with Rhy. Fig. 1)
1. Welcome to where time stands still, noone lives and noone will
Moon is full never seems to change, just labeled mentally deranged
Dream the sane thing every night, I see our freedom in my sight
No locked doors, no windows barred , no things to make my brain seem scared

2. Build my fear of what's out there, cannot breath the open air
Whisper things into my brain, assuring me that I'm insane
They think our heads are in their hands, but violent use brings violent plans
Keep him tied, it makes him well, he's getting better can't you tell?

1.Sleep my friend and you will see that dream is my reality
2.No more can they keep us in, listen damn it we will win
----------------|----------------|--------|
----------------|----------------|--------|
----------------|----------------|--------| 8th=--
----------------|----------------|--------|
----2-2-----3-3-|----5-5---------|--------|
0-0-----0-0-----|0-0-----5-5-5-3-|3-3-5-3-|

1.Keep me locked up in this cage, can't they see it's why my brain says rage?
2.They see it right, they see it well, but they think this saves from our hell
----------------|----------------|--------|
----------------|----------------|--------|
----------------|----------------|--------|8th=--
----------------|----------------|--------|
----2-2-----3-3-|----5-5---------|--------|
0-0-----0-0-----|0-0-----5-5-5-3-|3-3-5-3-|


CHORUS
                                                 Sa   -    ni   -
--------------------------------|--------------------------------|
--------------------------------|--------------------------------|
--------------------5s4-----5s4-|----------------_3_-------------|
------------5s4-----5s4-----5s4-|----------------020-------------|
------------5s4-----3s2-----3s2-|--------------------3-2---------|
0-------x-x-3s2-x-x-----x-x-----|------------------------5-3-2-3-|

tarium                                           leave   me
--------------------------------|--------------------------------|
--------------------------------|--------------------------------|
--------------------5s4-----5s4-|--------------------------------|
------------5s4-----5s4-----5s4-|--------------------------------|
------------5s4-----3s2-----3s2-|----2-2-2-2-2-2-3-2-------x-3---|
0-------x-x-3s2-x-x-----x-x-----|--------------------3-----x-1---|

be                                               Sa   -   ni    -
--------------------------------|--------------------------------|
--------------------------------|--------------------------------|
--------------------5s4-----5s4-|----------------_3_-------------|
------------5s4-----5s4-----5s4-|----------------020-------------|
------------5s4-----3s2-----3s2-|--------------------3-2---------|
0-------x-x-3s2-x-x-----x-x-----|------------------------5-3-2-3-|

tarium                                  just leave me alone
--------------------------------|--------------------------------| 1st time
--------------------------------|--------------------------------| go on with
--------------------5s4-----5---|4-------------------------------| the solo
------------5s4-----5s4-----5---|4-------------------------------| 2nd time
------------5s4-----3s2-----3---|2-------------------------------| skip to
0-------x-x-3s2-x-x-----x-x-----|--------------------------------| CODA

Now comes the second solo. The backing guitar plays a A chord diagramBB chord for
the next line and then goes on 4 times with the backing rhythm
of solo 1.

 ----------------------------------------------------------------|
 --------------------------------------------------------10------|
 ----------------------------------------7---7---9--s11----------|
 ------------------------7---7--s9-------------------------------|
 --------5---5---7--s9-------------------------------------------|
/7---------------------------------------------------------------|

For the next two lines we have two guitars soloing together.
For two notes they play on the same string (high A chord diagramE MajorE). In this
case the highest note is indicated above the tablature.

                22      22
--------15--17--19------19------19------------------------------|
17--19--------------------------17------------------------------|
----------------------------------------------------------------|
----------------------------------------------------------------|
----------------------------------------------------------------|
----------------------------------------------------------------|


17-h19-p17------15------17-h19--17--------------17--19p17 17------|
19-h20-p19------17------19-h20--19------19------19--20p19 17------|
----------------------------------------19------------ -- --------|
------------------------------------------------------ -- --------|
------------------------------------------------------ -- --------|
------------------------------------------------------ -- --------|

15------------------------------|
--------------------------------|
16------------------------------|
--------------------------------|
--------------------------------|
--------------------------------|

14^---------------------r-------------------------------14--15--|
15^---------------------r-------15------------------------------|
----------------------------------------------------------------|
----------------------------------------------------------------|
----------------------------------------------------------------|
----------------------------------------------------------------|
                ___3____
17--15--14--15--14h15p14  ----14---------------- -- --------------------|
--------------------      17------17--17--14--15p14 16--14--------------|
--------------------      ---------------------- -- --------16--14-s12--|
--------------------      ---------------------- -- --------------------|
--------------------      ---------------------- -- --------------------|
--------------------      ---------------------- -- --------------------|

--------------------------------|
--------------------------------|
14-p12------12------------------|
--------16------16--14--12------|
----------------------------16--|
--------------------------------|

--------------------------------------------------------17------|
------------------------------------------------17-s15------15-s|
----------------------------------------------------------------|
12-h14----------------------------------------------------------|
----------------------------------------------------------------|
----------------------------------------------------------------|

----15----------14----------12----------10----------7-----------|
14------14-s12------12-s10------10-s8-------8-s-7-------7-------|
------------------------------------------------------------7---|
----------------------------------------------------------------|
----------------------------------------------------------------|
----------------------------------------------------------------|

--------------------------------|
--------------------------------|
----7---9-----9s11------9-------|
9-------------~-----------------|
--------------------------------|
--------------------------------|

----------------------------------------------------------------|
----------------------------------------------------------------|
9---------------------------------------9---9---9-------9-------|
----------------------------------------------------------------|
----------------------------------------------------------------|
----------------------------------------------------------------|

------------------------------------------------5---------------|
----------------------------------------------------------------|
9-------7-------------------------------6-----------------------|
----------------5--------------/7----------------------/5-------|
----------------------------------------------------------------|
----------------------------------------------------------------|

--------3-----------------------|
--------------------------------|
4-----------------------6-------| Now go back and play verse 2.
---------------/7---------------|
--------------------------------|
--------------------------------|

CODA

----------------|--------------------------------|
----------------|--------------------------------|
_3_-------------|--------------------5s4-----5---|
020-------------|------------5s4-----5s4-----5---|
----3-2---------|------------5s4-----3s2-----3---|
--------5-3-2-3-|0-------x-x-3s2-x-x-----x-x-----|

--------------------------------|----------------|----------
--------------------------------|----------------|----------
4-------------------------------|_3_-------------|----------
4-------------------------------|020-------------|2---------
2-------------------------------|----3-2---------|2---------
--------------------------------|--------5-3-2-3-|0---------

This last A chord diagramE MajorE chord lasts rather long for Metallica, while the song
doubles its tempo and the lyrics go "Just leave me alone".
Then you make a pick slide down the neck and you go:

----------------|----------------|----------------|----------------|
----------------|----------------|----------------|----------------|
----------------|----------------|----------------|----------------|
----------------|----------------|----------------|----------------|
----------------|----------------|----------------|----------------|
0-0-0-0-0-0-0-0-|0-0-0-0-0-0-0-0-|0-0-0-0-0-0-0-0-|0-0-0-0-0-0-0-0-|

----------------|----------------|----------------|----------------|
----------------|----------------|----------------|----------------|
----------------|----------------|----------------|----------------|
0h2---0h2-------|----------------|0h1---0h1---0h1-|--0h2-----------|
0h2---0h2-------|----------------|0h1---0h1---0h1-|--0h2-----------|
----------0-0-0-|0-0-0-0-0-0-0-0-|----------------|------0-0-0-0-0-|

Rhy. Fig. 2                                         (end Rhy.Fig. 2)
----------------|----------------|----------------|----------------|
----------------|----------------|----------------|----------------| Repeat
----------------|----------------|----------------|----------------| this
0h1---0h1-------|----------------|0h1---0h1---0h1-|--0h2-----------| line
0h1---0h1-------|----------------|0h1---0h1---0h1-|--0h2-----------| 3 times
----------0-0-0-|0-0-0-0-0-0-0-0-|----------------|------0-0-0-0-0-|

             Fear of living on               Natives getting rest-
--------------------------------|--------------------------------|
--------------------------------|--------------------------------|
--------------------------------|------7-7-----------------------|
0-2---2-2-----------------------|0-2---7-7-----------------------|
0-2---2-2-----------------------|0-2---5-5-----------------------|
------0-0-----------------------|--------------------------------|

less now       mutiny in the air              got some death to do
--------------------------------|--------------------------------|
--------------------------------|--------------------------------|
--------------------------------|------5-5-------------4-4-------|
0-2---3-3-----------------------|0-2---5-5-------5-4---4-4-------|
0-2---3-3-----------------------|0-2---3-3-------3-2---2-2-------|
------1-1-----------------------|--------------------------------|

         Mirror stares back hard        "Kill" it's such a friend-
--------------------------------|--------------------------------|
--------------------------------|--------------------------------|
--------------------------------|------7-7-----------------------|
0-2---2-2-----------------------|0-2---7-7-----------------------|
0-2---2-2-----------------------|0-2---5-5-----------------------|
------0-0-----------------------|--------------------------------|

ly word       Seems the only way            for reaching out again
--------------------------------|--------------------------------|
--------------------------------|--------------------------------|
--------------------------------|------5-5-------------4-4-------|
0-2---3-3-----------------------|0-2---5-5-------5-4---4-4-------|
0-2---3-3-----------------------|0-2---3-3-------3-2---2-2-------|
------1-1-----------------------|--------------------------------|

--------------------------------|
--------------------------------|
--------------------------------|
--------------------------------|
--------------------------------|
0-0-0-0-0-0-0-0-0-0-0-0-12\-----|

Now we have another solo played over Rhy. Fig. 2 (4 times)

----------------------------------------------------------------|
----------------------------------------------------------------|
12--12--12--12--12--12--12--12--12--12--12--12--12--12--12--12--|
----------------------------------------------------------------|
----------------------------------------------------------------|
----------------------------------------------------------------|

----------------------------------------------------------------|
----------------------------------------------------------------|
16--12--12--12--12--12--12--12--12--12--12--12--12--12--12--12--|
----------------------------------------------------------------|
----------------------------------------------------------------|
----------------------------------------------------------------|

------------------------------------------------------------12--|
--------------------------------13--12--12--12--15--12--12------|
14--12--12--12--16--12--12--12----------------------------------|
----------------------------------------------------------------|
----------------------------------------------------------------|
----------------------------------------------------------------|

                ______3_______
13--12--12--12--15----12----12--17\---------------------12------|
-----------------------------------------------/12--------------|
----------------------------------------------------------------|
----------------------------------------------------------------|
----------------------------------------------------------------|
----------------------------------------------------------------|

17-p15-p12--------------12------17-p15-p12----------------------|
----------------17-p15--------------------------17-p15-p12------|
----------------------------------------------------------------|
----------------------------------------------------------------|
----------------------------------------------------------------|
----------------------------------------------------------------|

17-p15-p12--------------12------17-p15-p12--------------12------|
----------------17-p15--------------------------15-p12----------|
----------------------------------------------------------------|
----------------------------------------------------------------|
----------------------------------------------------------------|
----------------------------------------------------------------|

                                                ______3_______
17^---------------------r-------^---------------------17----15--|
------------------------------------------------17--------------|
----------------------------------------------------------------|
----------------------------------------------------------------|
----------------------------------------------------------------|
----------------------------------------------------------------|

14--------------14----------------------------------------------|
--------15--------------15--------------------------------------|
------------------------------------------------2---------------|
--------------------------------------------------------4-------|
----------------------------------------------------------------|
----------------------------------------------------------------|

----------------------------------------------------------------|
----------------------------------------------------------------|
----------------4-------2---------------2-------4---2-----------|
4^------------------------------4-----------------------4-------|
----------------------------------------------------------------|
----------------------------------------------------------------|

----------------------------------------------------------------|
----------------------------------------------------------------|
--------------------------------------------------------4-------|
3-------2---------------2^--------------------------------------|
----------------5-----------------------------------------------|
----------------------------------------------------------------|

----------------------------------------------------------------|
----------------5-----------------------5---------------5-------|
7^----------------------7^----------------------7^--------------|
----------------------------------------------------------------|
----------------------------------------------------------------|
----------------------------------------------------------------|

----------------------------------------------------------------|
--------5---------------5-------------------------------12------|
7^--------------7^--------------7\--------------14--------------|
----------------------------------------------------------------|
----------------------------------------------------------------|
----------------------------------------------------------------|

____________3__________         ___________3___________
--------------------------------15^--------15--------14---------|
15^--------15--------12-----------------------------------------|
----------------------------------------------------------------|
----------------------------------------------------------------|
----------------------------------------------------------------|
----------------------------------------------------------------|

____________3__________
12-------------------12-----------------------------------------|
-----------15-------------------15^---------------------17--17--|
----------------------------------------------------------------|
----------------------------------------------------------------|
----------------------------------------------------------------|
----------------------------------------------------------------|

15----------15--17--15------15--19--17-(15)--s--21------19--22--|
----17--18--------------19--------------------------------------|
----------------------------------------------------------------|
----------------------------------------------------------------|
----------------------------------------------------------------|
----------------------------------------------------------------|

22--19------22--22^-------------22^-----------------------------|
--------x-------------------------------------------------------|
-------------------------------------------End of solo 3--------|
----------------------------------------------------------------|
----------------------------------------------------------------|
----------------------------------------------------------------|

--------------------------------|--------------------------------|
--------------------------------|--------------------------------|
--------------------R-----------|------7-7-------7---R-----------|
0-2---2-2-------2---E-----------|0-2---7-7-------7---E-----------|
0-2---2-2-------2---S-----------|0-2---5-5-------5---S-----------|
------0-0-------0---T-----------|--------------------T-----------|

For the next part of the song there are 4 guitars playing from time
to time. We are going to use the following:

Rhy. Fig. 3
--------------------------------|--------------------------------|
--------------------------------|--------------------------------|
--------------------------------|------7-7-----------------------|
0-2---2-2-----------------------|0-2---7-7-----------------------|
0-2---2-2-----------------------|0-2---5-5-----------------------|
------0-0-----------------------|--------------------------------|

                                                 (end Rhy. Fig. 3)
--------------------------------|--------------------------------|
--------------------------------|--------------------------------|
--------------------------------|------5-5-------------4-4-------|
0-2---3-3-----------------------|0-2---5-5-------5-4---4-4-------|
0-2---3-3-----------------------|0-2---3-3-------3-2---2-2-------|
------1-1-----------------------|--------------------------------|


Riff 1
--------------------------------|--------------------------------|
--------------------------------|--------------------------------|
--------------------------------|2---------------2-2-2-----2-----|
(5)-------------5-5-5-4---5-----|----------------------5---------|
(7)-------------7-7-7-6---7-----|9---------------9-9-9-7---9-----|
--------------------------------|--------------------------------|

                                                      (end Riff 1)
--------------------------------|--------------------------------|
--------------------------+-----|--------------------------------|
----4-5---------5-5-5-7---5-----|--------------------------4-----|
5-----------------------------5-|----------------4-4-4-5-------5-|
10--9-8---------8-8-8-10--8---7-|----------------6-6-6-7---9---7-|
--------------------------+-----|--------------------------------|

Until the end of solo 4 one guitar plays Rhy. Fig. 3, another one
plays the following line...

--------------------------------|--------------------------------|
--------------------------------|--------------------------------|
--------------------------------|--------------------------------|
--------------------------------|--------------------------------|
------------5-s-7-7-7-5---7-----|9---------------9-9-9-7---9-----|
--------------------------------|--------------------------------|

--------------------------------|--------------------------------|
--------------------------------|--------------------------------|
--------------------------------|--------------------------------|
--------------------------------|--------------------------------|
10--9-8---------8-8-8-10--8---7-|----------------6-6-6-7---9-----|
--------------------------+-----|--------------------------------|

--------------------------------|--------------------------------|
--------------------------------|--------------------------------|
--------------------------------|--------------------------------|
--------------------------------|--------------------------------|
7---------------7-7-7-5---7-----|9---------------9-9-9-7---9---9-|
--------------------------------|--------------------------------|

--------------------------------|--------------------------------|
--------------------------------|--------------------------------|
--------------------------------|--------------------------------|
--------------------------------|------------------------------5-|
10--9-8---------8-8-8-10--8---7-|----------------6-6-6-7---9---7-|
--------------------------+-----|--------------------------------|

This last note on 5th fret of A chord diagramD MajorD string belongs to another guitar
whose line is tabbed in the upper part of Riff 1. All three
guitars play together Rhy. Fig. 3 and Riff 1 for 2 times, and then
continue for 2 times

Almost there ...

Sign in to get your own page with links to favourite songs and more. You are just one click away...

Login with Facebook Login with Google