Log in

One click and you are in

Login with Facebook Login with Google

Why sign up and log in

Guitar Tabs Explorer
Metallica guitar tabs for Enter sandman (Ver. 3)

Guitar tabs with lyrics

----------------------|--------------------|-------------------|--------------
----------------------|--------------------|-------------------|--------------
----------------------|--------------------|-------------------|--------------
---------5------------|--------------------|-------------------|--------------
------7-----------7---|--3--------------/7-|---------------/7--|--------------
---0--------6--5------|--1-0-0-0-0-0-0-0---|-0-0-0-0-0-0-0-----|--------------
 Rift 1                    Rift 2             Rift 3

-|-----------------|------------------|-----------------|-----------------|---
-|----------------*|*----------------*|-----------------|-----------------|---
-|-----------------|------------------|-----------------|-----------------|---
-|-----------------|------------------|-----------------|-----------------|---
-|3-----7---------*|*3-----7---------*--5---4---4-5-4-2-|-3---------------|---
-|1-0-0---6-5-0-0--|-1---0---6-5---0--|-3-0-2-0-2-3-2-0-|-1-0-0-0-0-0-0-0-|---
   Rift 4               Rift 5            Rift 6          Rift 7

-|-------------|---------|----------------------------------------------------
-|-------------|---------|----------------------------------------------------
-|-------------|---------|----------------------------------------------------
-|-----7-------|-------4-|----------------------------------------------------
-|---9-------9-|-4-4-3-2-|----------------------------------------------------
-|-0-----8-7---|-2-------|----------------------------------------------------
 Rift 8          Rift 9


Intro

Play Rift 1 11 times than rift once that rift three six times than rift four six times,
than rift five six times than rift six once than rift five again.


Verse

repeat rift 7 through the verse with six at the end of each line.

Chorous

Repeat rift nine through the chorus then play rift six at the end

Pre chorus

Play rift eight

And Now The Lyrics:


Verse 1

Say Your Prayers Little One, Don’t Forget My Son, To Inclued Every One
I tuck you In Warm Withen, Keep you free from sin, ’till The Sandman He Comes


Pre Chorus
Sleep With One Eye Open, Gripping your pillow tight


Chorus

Exit Light,

Enter Night,

Take My Hand,

Were off to never never land

(play rift 5 twice before starting the next verse)


Verse 2

Somthings Wrong Shut the light, many thought tonight, and they arn’t of snow white

Dreams of War, Dreams of Liers, Dreams Of Dragons Fire, and Of thing that will bite.


Pre Chorus


Chorus

Exit Light,

Enter Night,

Grain Of Sand,

Exit Light,

Enter Night,

Take My Hand,

Were off to never never land

(play rift 5 twice before starting the next verse)


Bridge.

(lyrics are spoken, Play rift one once for each line

Now I lay Me
Down To Sleep
I Pray the Lord
My Soul To Keep
If I should Die
Before I wake
I pray the Lord
My Soul To take

(for this part, stike the top string 8 times for each measure w/ ------------
                                                                 ------------
                                                                 ------------
                                                                 ------------
                                                                 -----3------
                                                                 -----1------
That you have to listin for in the song.

Hush Little Baby Don’t Say A chord diagramA augmentedA Word,
And Never Mind That Noise You Heard,
It’s Just The Beasts Under Your Bed,
In Your Closet, In Your Head


Chorus

Other versions of Enter Sandman

Enter sandmanChords
Enter sandman (Ver. 2)Chords
Enter sandmanTabs
Enter sandman (Ver. 2)Tabs
Enter sandman (Ver. 4) - introTabs
Enter sandman - introTabs
Enter sandman intro - introTabs

Almost there ...

Sign in to get your own page with links to favourite songs and more. You are just one click away...

Login with Facebook Login with Google