Log in

One click and you are in

Login with Facebook Login with Google

Why sign up and log in

Guitar Tabs Explorer
Metallica tabs for Dyers eve

Guitar tabs with lyrics

-MetallicA-
"DYERS EVE"  on the album ...AND JUSTICE FOR ALL


{use heavy distortion throughout}
PM.............|
E-|--------------------------------------------------------------------|
B-|--------------------------------------------------------------------|
G-|--------------------------------------------------------------------|
D-|----------------------2---3---2---5-----2---3------2---2--3-----2---|
A-|-2-3-2-3-2-3-2-3- 2---3---2---5-----2---3------2---2--3-----2---3---|
E-|----------------------0---1---0---3-----0---1------0---0--1-----0---|

                        PM........|
E-|----------------------------------|
B-|----------------------------------|
G-|----------------------------------|
D-|--5-----2----3----2---------------|
A-|--5-----2----3----2---------------|
E-|--3-----0----1----0--0--1--0--1---|

             PM..|   PM...|   PM...|       PM...|    PM....|     PM...........|
E-|--------------------------------------------------------------------|
B-|--------------------------------------------------------------------|
G-|--------------------------------------------------------------------|
D-|------2----------3---------2---------5---2----------3----------2----|
A-|------2----------3---------2---------5---2----------3----------2----|
E-|------0---0--0--1--0--0--0--0--0--3---0---0--0--1---0--0---0----0-1-|


E-|-----|------------------------------------------------------------|
B-|-----|------------------------------------------------------------|
G-|-----|------------------------------------------------------------|
D-|-2---|4------------ -3\4-4-4-----------------------5\4-4-4--------|
A-|-2---|2--2-3-2-3-2-3-5\2-0-2---2-3-2-3-2-3-2-3-3\2-0-2---2-3-2-3-2|
E-|-0---|------------------------------------------------------------|

E-|--------------------------------------------------------------------|
B-|--------------------------------------------------------------------|
G-|--------------------------------------------------------------------|
D-|---5\4--4---4-----------------------------5----4-----------4--------|
A-|---3\2--0---2---2-3-2-3-2-3-2-3-3---2----------------------2--2-3-2-|
E-|--------------------------------------------------------------------|


E-|--------------------------------------------------------------------|
B-|--------------------------------------------------------------------|
G-|--------------------------------------------------------------------|
D-|-5\4---4----4--------------------3\2-----4----2------------------3\2|
A-|-3\2---0----2----2-3-2-3-2-3-2-3-5\4-----0----4-----2-3-2-3-2-3--5\4|
E-|--------------------------------------------------------------------|
										pg1


E-|---------------------------------|
B-|---------------------------------|
G-|---------------------------------|
D-|--4------------------------5--4-|
A-|--2----2-3-2-3-2-3-2-3-3-2-------|
E-|---------------------------------|


E-|--------------------------------------------------------------------|
B-|--------------------------------------------------------------------|
G-|--------------------------------------------------------------------|
D-|------------------------------------------------4-------------------|
A-|-2-----3-3-2---3-3-2-------5-5-2------5-5-2---2--2-3-2-3-2-3-0--2---|
E-|-0-----5-5-0---5-5-0-------3-3-0------3-3-0-------------------------|


E-|--------------------------------------------------------------------|
B-|--------------------------------------------------------------------|
G-|--------------------------------------------------------------------|
D-|--5----5--5--4--4---------2---------------2---7---------5--------4--|
A-|--3----3--3--2--2---------2---------------2---5---------3--------2--|
E-|--------------------3p2p0---0--3p2p0--0------3p2p0-----3p2p0--------|


E-|--------------------------------------------------------------------|
B-|--------------------------------------------------------------------|
G-|---------------------------------------------9--9---7----5----------|
D-|-------------------5---5--5--4--4---------9--9---7----5---4---------|
A-|---2----0----2---3---3--3--2--2---------7--7---5----3---2-2-3-2-3-2-|
E-|---------------------------------3p2p0--0--0------------------------|


E-|--------------------------------------------------------------------|
B-|--------------------------------------------------------------------|
G-|--------------------------------------------------------------------|
D-|-----5--------------------------------------------------------------|
A-|-2---3---3-3-3-3-3p2p0-2p0------------------------------------------|
E-|---------------------------3----------------------------------------|

                verses
E-|--------------------------------------------------------------------|
B-|--------------------------------------------------------------------|
G-|--------------------------------------------------------------------|
D-|---4-----------------------5--------7---------------------2---------|
A-|---4-----------------------5--------7---------------------2---------|
E-|---2-----------------------3--------5---------------------0---------|
    Dear  Mother,Dear Father         What is  this  hell you    have put me
                                                                      through


										pg2

E-|--------------------------------------------------------------------|
B-|--------------------------------------------------------------------|
G-|--------------------------------------------------------------------|
D-|-4--------------------------5-------2--------------------7---------2|
A-|-4--------------------------5-------2--------------------7---------2|
E-|-2--------------------------3-------0--------------------5---------0|
    Believer,  de-ciever               Day in,Day   out,  live  my  life  for you

E-|--------------------------------------------------------------------|
B-|--------------------------------------------------------------------|
G-|----------------------------------7---------------------------------|
D-|-4--------------------------------7------------7--------------------|
A-|-4--------------------------------5------------7--------------------|
E-|-2---------------------------------------------5--------------------|
    pushed  onto   me whats wrong    or  right hidden   from  this thing

E-|--------------------------------------|
B-|--------------------------------------|
G-|----------------------5---4--5-5------|
D-|----------------------5---4--5-5------|
A-|----------------------3---2--3-3------|
E-|--------------------------------------|
  that  they    call  life

E-|--------------------------------------------------------------------|
B-|--------------------------------------------------------------------|
G-|--------------------------------------------------------------------|
D-|-4-----------------5\4-4-4------------------------5\4---4--4--------|
A-|-2-2-3-2-3-2-3--3\2-0-2---2-3-2-3-2-3-2-3--3\2---0--2----2-3-2-3-2-3|
E-|--------------------------------------------------------------------|


E-|--------------------------------------------------------------------|
B-|--------------------------------------------------------------------|
G-|--------------------------------------------------------------------|
D-|-4--4-------------------------------5----4--------------------5\4---|
A-|-0--2----2-3-2-3-2-3-2-3--3----2-------------2-3-2-3-2-3-2-3-3\2--0-|
E-|--------------------------------------------------------------------|

 E-|-------------------------------------------------------------------|
B-|--------------------------------------------------------------------|
G-|--------------------------------------------------------------------|
D-|---------------------5\4-------4-----4-------------------5\4-------4|
A-|-2-3-2-3-2-3-2-3-3\2-------0-----2----2-3-2-3-2-3-3\2-------0--2----|
E-|--------------------------------------------------------------------|

E-|--------------------------------------------------------------------|
B-|--------------------------------------------------------------------|
G-|--------------------------------------------------------------------|
D-|------------- 5-------4--------4---------------------------5--------|
A-|-2-3-2-3-3-2-----------------4---------------------------5----------|
E-|--------------------------------2---------------------------3-------|
 		Dear Mother,Dear Father  	   every				   pg3
E-|--------------------------------------------------------------------|
B-|--------------------------------------------------------------------|
G-|------------------------4---4----5----------------------------------|
D-|-------------2----------4---4----5------4----------------5----------|
A-|-------------2----------2---2----3------4----------------5----------|
E-|-------------0----------------------------2----------------3--------|
    thought i'd think you'd dissaprove    curator,dictator             always

E-|-----------------------------|
B-|-----------------------------|
G-|-----------------------------|
D-|--------7-----4-4----5-------|
A-|--------7-----4-4----5-------|
E-|--------5-----2-2----3-------|
    censoring my every move       (all the five power chords,E5,A5.etc)
The Verses Follow timing pattern above the rest of the verse are:
 A chord diagramF#F#                  A chord diagramD MajorD
CHILDREN ARE SEEN BUT NOT HEARD
A chord diagramA augmentedA                    A chord diagramG+G
TEAR OUT EVERY THING INSPIRED


BARRED REALITY          LIVING BLINDLY

(THEN VERSE RIFFS)

(THEN SECOND VERSE RIFFS)

THEN
                      (MUTE ALL OPEN E'S.)
E-|--------------------------------------------------------------------|
B-|--------------------------------------------------------------------|
G-|--------------------5\4---4---4------------------------5\4---4---4|X6
D-|--------------------3\2---0---2------------------------3\2---0---2--|
A-|--------------------------------------------------------------------|
E-|--0---0-0-0----0-0-----------------0----0-0-0-----0-0---------------|

E-|---------------|
B-|---------------|
G-|---------------|
D-|----3-------3--|
A-|----3-------3--|
E-|----1-------1--|

THAT IS PLAYED WITH THE VERSES AT THE END.


TABBED BY: Cory  Allen

E-MAIL = DETHANGEL6@AOL.COM Questions ....Comments ....(Requests ..... are not guaranteed but will probably have it or can tab it)

Almost there ...

Sign in to get your own page with links to favourite songs and more. You are just one click away...

Login with Facebook Login with Google