Log in

One click and you are in

Login with Facebook Login with Google

Why sign up and log in

Guitar Tabs Explorer
Metallica tabs for Dont tread on me

Guitar tabs

TAB: Don't Tread On Me
BAND: Metallica

Guitar 1

|A chord diagramE MajorE||--------------------------|--------------------------|
|A chord diagramBB||--------------------------|--------------------------|
|A chord diagramG+G||--------------------------|--------------------------|
|A chord diagramD MajorD||--------------------------|--------------------------|
|A chord diagramA augmentedA||--------------------------|--------------------------|
|A chord diagramE MajorE||--------------------------|--------------------------|

|------------------------------------|-------------------------------------|
|------------------------------------|-------------------------------------|
|----------9--9--9-------------------|-----------9--9--9--11---------------|
|-9--9--9-----------11---------------|--9--9--9-----------------13----9----|
|-------------------------12----7----|-------------------------------------|
|------------------------------------|-------------------------------------|

|--------------------------------------------|--------------------------|
|--------------------------------------------|--------------------------|
|--------------12--12--12--11----------------|--------------------------|
|--12--12--12--------------------12----------|--------------10--10--10--|
|--------------------------------------12----|--10--10--10--------------|
|--------------------------------------------|--------------------------|


|-----------------------------|--------------------------|
|-----------------------------|--------------------------|
|-------9---------------------|--------------------------|
|--9---------9----------------|--------------------------|
|-----------------------------|--------------------------|
|-----------------------------|--------------------------|


|--------------------------------|----------------------------|
|--------------------------------|----------------------------|
|--------------------------------|----------------------------|
|--------------------------------|----------------------------|
|--2--2--2--------2----2-------|--2--2--2--------2----2--------|
|--0--0--0--------0----0-------|--0--0--0--------0----0--------|


|-----------------------------------|-----------------------------------|
|-----------------------------------|-----------------------------------|
|-----------------------------------|-----------------------------------|
|-----------3---------------3-------|-----------3-----------------------|
|--2--2--2--1----3--2----2--1----3--|--2--2--2--1--3--2------3--5----3--|
|--0--0--0-------1--0----0-------1--|--0--0--0-----1--0------1--3----1--|


|-----------------------------------|-----------------------------------|
|-----------------------------------|-----------------------------------|
|-----------------------------------|-----------------------------------|
|-----------3---------------3-------|-----------3-----------------------|
|--2--2--2--1----3--2----2--1----3--|--2--2--2--1----3--2----3--5----3--|
|--0--0--0-------1--0----0-------1--|--0--0--0-------1--0----1--3----1--|


|-----------------------------------|-----------------------------------|
|-----------------------------------|-----------------------------------|
|-----------------------------------|-----------------------------------|
|-----------3---------------3-------|-----------3-----------------------|
|--2--2--2--1----3--2----2--1----3--|--2--2--2--1----3--2----3--5----3--|
|--0--0--0-------1--0----0-------1--|--0--0--0-------1--0----1--3----1--|


|-----------------------------------|-----------------------------------|
|-----------------------------------|-----------------------------------|
|-----------------------------------|-----------------------------------|
|-----------3---------------3-------|-----------3-----------------------|
|--2--2--2--1----3--2----2--1----3--|--2--2--2--1----3--2----3--5----3--|
|--0--0--0-------1--0----0-------1--|--0--0--0-------1--0----1--3----1--|


|-----------------------------------|-----------------------------------|
|-----------------------------------|-----------------------------------|
|-----------------------------------|-----------------------------------|
|-----------3---------------3-------|-----------3-----------------------|
|--2--2--2--1----3--2----2--1----3--|--2--2--2--1----3--2----3--5----3--|
|--0--0--0-------1--0----0-------1--|--0--0--0-------1--0----1--3----1--|


|-----------------------------------|-----------------------------------|
|-----------------------------------|-----------------------------------|
|-----------------------------------|-----------------------------------|
|-----------3---------------3-------|-----------3-----------------------|
|--2--2--2--1----3--2----2--1----3--|--2--2--2--1----3--2----3--5----3--|
|--0--0--0-------1--0----0-------1--|--0--0--0-------1--0----1--3----1--|


|-------------------------------|-------------------------------||
|-------------------------------|-------------------------------||
|-------------------------------|-------------------------------||
|-------------------------------|-------------------------------||
|--2--2--2--------2----2--------|--2--2--2--------3----3--------||
|--0--0--0--------0----0--------|--0--0--0--------1----1--------||


Other Guitar Plays

A chord diagramE MajorE||-------------------------------|-------------------------------|
A chord diagramBB||-------------------------------|-------------------------------|
A chord diagramG+G||-------------------------------|-------------------------------|
A chord diagramD MajorD||-------------------------------|-------------------------------|
A chord diagramA augmentedA||--2--2--2--------2----2--------|--2--2--2--------2----2--------|
A chord diagramE MajorE||--0--0--0--------0----0--------|--0--0--0--------0----0--------|

|-------------------------------|-------------------------------|
|-------------------------------|-------------------------------|
|-------------------------------|-------------------------------|
|-------------------------------|-----------------4----4--------|
|--2--2--2--------2----2--------|--2--2--2--------2----2--------|
|--0--0--0--------0----0--------|--0--0--0----------------------|


|-------------------------------|-----------------|-------------------------|
|-------------------------------|-----------------|-------------------------|
|-------------------------------|-----------------|-------------------------|
|--7--7--7--------7----7--------|-----------------|-------------------------|
|--5--5--5--------5----5--------|--3--3--3--------|--2----2-----------------|
|-------------------------------|--1--1--1--------|--0----0-----------------|

That's it

Almost there ...

Sign in to get your own page with links to favourite songs and more. You are just one click away...

Login with Facebook Login with Google