Log in

One click and you are in

Login with Facebook Login with Google

Why sign up and log in

Guitar Tabs Explorer
Metallica tabs for Cyanide

Guitar tabs

Guitar 1

E-----------------------------------------------
B-----------------------------------------------
G-----------------------------------------------
D----------------3-----3-----3------------------
A--2-2-2---------1-----1-----1---------2-2-2----
E--0-0-0-----0-0---0-0---0-0---0-0-----0-0-0-0-0
E----------------------------------------------
B----------------------------------------------
G----------------------------------------------
D-----------------------------3-----3-----3----
A----------------2-2-2--------1-----1-----1----
E-0-0-0-0-0-0-0--0-0-0----0-0---0-0---0-0---0-0


E-----------------------------------------------
B-----------------------------------------------
G-----------------------------------------------
D-----------------------------------------------
A--2-2-2----------------------------2-2-2-------
E--0-0-0-0-0-0-0-0-0-0-0-0-0-0-0-0--0-0-0-------

E-----------------------------------------------
B-----------------------------------------------
G-----------------------------------------------
D-----------------------------------------------
A-----------------------------------------------
E-----------------------------------------------

E-----------------------------------------------
B-----------------------------------------------
G-----------------------------------------------
D-------------------------------12/9--5/9-9-----
A---14-14-14--13-13-13--12-12---10/7--7/7-7-----
E---0--0--0---0--0--0---0--0--------------------X4

E-----------------------------------------------
B-----------------------------------------------
G-----------------------------------------------
D-----------------------------------------------
A-----3/-7-5------3/-7-5------3/-7-5------------
E---0------------0----------0-------------------

E-----------------------------------------------
B-----------------------------------------------
G-----------------------------------------------
D-------------------------------12/9--5/9-9-----
A---14-14-14--13-13-13--12-12---10/7--7/7-7-----
E---0--0--0---0--0--0---0--0--------------------X6

E-----------------------------------------------
B-----------------------------------------------
G-----------------------------------------------
D-----------------------------------------------
A-----3/-7-5------3/-7-5------3/-7-5------------
E---0------------0----------0-------------------

E-----------------------------------------------
B-----------------------------------------------
G-----------------------------------------------
D---5-5-5-5-5-5-5-5-5-5-5-5-5-5-5-5-5-5---8-8-8-8
A---5-5-5-5-5-5-5-5-5-5-5-5-5-5-5-5-5-5---8-8-8-8
E---3-3-3-3-3-3-3-3-3-3-3-3-3-3-3-3-3-3---6-6-6-6

E-----------------------------------------------
B-----------------------------------------------
G-----------------------------------------------
D-8-8-8-8-8-8---3-3--7-7------------------------
A-8-8-8-8-8-8---3-3--7-7-----3/-7-5------3/-7-5-
E-6-6-6-6-6-6---2-2--5-5---0-----------0--------

E-----------------------------------------------
B-----------------------------------------------
G-----------------------------------------------
D--------------------------5-5-5-5-5-5-5-5-5-5-5
A-----3/-7-5-----3/-7-5----5-5-5-5-5-5-5-5-5-5-5
E---0----------0-----------3-3-3-3-3-3-3-3-3-3-3

E-----------------------------------------------
B-----------------------------------------------
G-----------------------------------------------
D-5-5-5-5-5-5-5-5-5--8-8-8-8-8-8-8-8-8-8-8---3-3
A-5-5-5-5-5-5-5-5-5--8-8-8-8-8-8-8-8-8-8-8---3-3
E-3-3-3-3-3-3-3-3-3--6-6-6-6-6-6-6-6-6-6-6---2-2

E-----------------------------------------------
B-----------------------------------------------
G-----------------------------------------------
D--7-7---------------------------8-8-8-8-8-8----
A--7-7------3/-7-5----3/-7-5-----7-7-7-7-7-7----
E--5-5----0---------0------------6-6-6-6-6-6----

E-----------------------------------------------
B-----------------------------------------------
G-----------------------------------------------
D-----------------------------------------------
A---2-----------------1-------------------------
E---0-0-0-0-0-0-0-0-0---3-0--0-0-0-0-0-0-0-0-0-0

E------------------------------------------------
B------------------------------------------------
G------------------------------------------------
D-----------------------------0------------------
A-----1-2-1-----------1-2-4-4b--4-2-1-3-0--------
E-0-0-------3-0-0-0-0---------------------0-0-0-0

E-----------------------------------------------
B-----------------------------------------------
G-----------------------------------------------
D-----------------------------------------------
A----------1-------------------1-2-1------------
E-0-0-0-0----3-0--0-0-0-0-0-0--------3-0--0-0-0-

E-----------------------------------------------
B-----------------------------------------------
G-----------------------------------------------
D-------------0---------------------------------
A----1-2-4-4b--4-2-1----------------------------
E-0------------------3-0-0-0-0-0-0-0-0-0-0-0-0-0

E-----------------------------------------------
B-----------------------------------------------
G-----------------------------------------------
D----------------3-----3-----3------------------
A--2-2-2---------1-----1-----1---------2-2-2----
E--0-0-0-----0-0---0-0---0-0---0-0-----0-0-0-0-0

E----------------------------------------------
B----------------------------------------------
G----------------------------------------------
D-----------------------------3-----3-----3----
A----------------2-2-2--------1-----1-----1----
E-0-0-0-0-0-0-0--0-0-0----0-0---0-0---0-0---0-0


E-----------------------------------------------
B-----------------------------------------------
G-----------------------------------------------
D-----------------------------------------------
A--2-2-2----------------------------2-2-2-------
E--0-0-0-0-0-0-0-0-0-0-0-0-0-0-0-0--0-0-0-------


E-----------------------------------------------
B-----------------------------------------------
G-----------------------------------------------
D-------------------------------12/9--5/9-9-----
A---14-14-14--13-13-13--12-12---10/7--7/7-7-----
E---0--0--0---0--0--0---0--0--------------------X4

E-----------------------------------------------
B-----------------------------------------------
G-----------------------------------------------
D-----------------------------------------------
A-----3/-7-5------3/-7-5------3/-7-5------------
E---0------------0----------0-------------------

E-----------------------------------------------
B-----------------------------------------------
G-----------------------------------------------
D-------------------------------12/9--5/9-9-----
A---14-14-14--13-13-13--12-12---10/7--7/7-7-----
E---0--0--0---0--0--0---0--0--------------------X5

E-----------------------------------------------
B-----------------------------------------------
G-----------------------------------------------
D-----------------------------------------------
A-----3/-7-5------3/-7-5------3/-7-5------------
E---0------------0----------0-------------------

E-----------------------------------------------
B-----------------------------------------------
G-----------------------------------------------
D---5-5-5-5-5-5-5-5-5-5-5-5-5-5-5-5-5-5---8-8-8-8
A---5-5-5-5-5-5-5-5-5-5-5-5-5-5-5-5-5-5---8-8-8-8
E---3-3-3-3-3-3-3-3-3-3-3-3-3-3-3-3-3-3---6-6-6-6

E-----------------------------------------------
B-----------------------------------------------
G-----------------------------------------------
D-8-8-8-8-8-8---3-3--7-7------------------------
A-8-8-8-8-8-8---3-3--7-7-----3/-7-5------3/-7-5-
E-6-6-6-6-6-6---2-2--5-5---0-----------0--------

E-----------------------------------------------
B-----------------------------------------------
G-----------------------------------------------
D--------------------------5-5-5-5-5-5-5-5-5-5-5
A-----3/-7-5-----3/-7-5----5-5-5-5-5-5-5-5-5-5-5
E---0----------0-----------3-3-3-3-3-3-3-3-3-3-3

E-----------------------------------------------
B-----------------------------------------------
G-----------------------------------------------
D-5-5-5-5-5-5-5-5-5--8-8-8-8-8-8-8-8-8-8-8---3-3
A-5-5-5-5-5-5-5-5-5--8-8-8-8-8-8-8-8-8-8-8---3-3
E-3-3-3-3-3-3-3-3-3--6-6-6-6-6-6-6-6-6-6-6---2-2

E-----------------------------------------------
B-----------------------------------------------
G-----------------------------------------------
D--7-7---------------------------8-8-8-8-8-8----
A--7-7------3/-7-5----3/-7-5-----7-7-7-7-7-7----
E--5-5----0---------0------------6-6-6-6-6-6----

E-----------------------------------------------
B-----------------------------------------------
G-----------------------------------------------
D-----------------------------------------------
A---2-----------------1-------------------------
E---0-0-0-0-0-0-0-0-0---3-0--0-0-0-0-0-0-0-0-0-0

E------------------------------------------------
B------------------------------------------------
G------------------------------------------------
D-----------------------------0------------------
A-----1-2-1-----------1-2-4-4b--4-2-1-3-0--------
E-0-0-------3-0-0-0-0---------------------0-0-0-0


thats all of it sorry there aint no solo info

The End

Cyanide tab

Metallica tabs for Cyanide "Cyanide" was the third single from Metallica's "Death Magnetic" album. This was their 9th studio album. The single was released in September 2008.

All band members are credited as writers; James Hetfield, Kirk Hammett, Robert Trujillo and Lars Ulrich. This guitar tablature should help you play Cyanide with the right Metallica sound!

Other versions of Cyanide

Cyanide liveTabs
Cyanide (Ver. 2)Tabs

Almost there ...

Sign in to get your own page with links to favourite songs and more. You are just one click away...

Login with Facebook Login with Google