Log in

One click and you are in

Login with Facebook Login with Google

Why sign up and log in

Guitar Tabs Explorer
Metallica tabs for Cyanide  live

Guitar tabs with lyrics

Exported from the GP file I did early today, 3 hours of tabbing from the live
recording which had the drums really high, you can barely listen to the guitar
Hope you like it
Kurai

BTW: I f*ucked up the timing on the solo... just read the notes

                                                                       Metallica
Guitar 1

       The PMd 0s aint really there but I dont have a wah
                                                                PM PM    PM PM
       A chord diagramE MajorE                                                  A chord diagramE MajorE  A chord diagramE MajorE  S  S  A chord diagramE MajorE  S  S  A chord diagramE MajorE
A chord diagramD#D#||-----------------------------------------------------------------------------|
A chord diagramA#A#||-----------------------------------------------------------------------------|
A chord diagramF#F#||*----------------------------------------------------------------------------|
A chord diagramC#C#||*-----------------------------------------------------------------3--------3-|
A chord diagramG#G#||---2--------------------------------------------------2--2--------1--------1-|
A chord diagramD#D#||---0--------------------------------------------------0--0--0--0-----0--0----|


                PM PM PM PM PM PM
  Q    A chord diagramE MajorE  A chord diagramE MajorE  A chord diagramE MajorE  S  S  S  S  S  S   3x  Q    A chord diagramE MajorE  A chord diagramE MajorE  A chord diagramE MajorE  A chord diagramE MajorE  H
-----------------------------------||----------------------------|
-----------------------------------||----------------------------|
----------------------------------*||----------------------------|
--3-------------------------------*||--3-------------------------|
--1----2--2--2---------------------||--1----2--2--2--------------|
-------0--0--0--0--0--0--0--0--0---||-------0--0--0--------------|


  Bass line
  W                   W                   W                   W
-------------------|-------------------|-------------------|-------------------|
-------------------|-------------------|-------------------|-------------------|
-------------------|-------------------|-------------------|-------------------|
-------------------|-------------------|-------------------|-------------------|
-------------------|-------------------|-------------------|-------------------|
-------------------|-------------------|-------------------|-------------------|

                                      PM       PM PM
    A chord diagramE MajorE  A chord diagramE MajorE  A chord diagramE MajorE  A chord diagramE MajorE  A chord diagramE MajorE  A chord diagramE MajorE  A chord diagramE MajorE  A chord diagramE MajorE      A chord diagramE MajorE  A chord diagramE MajorE  A chord diagramE MajorE  A chord diagramE MajorE  A chord diagramE MajorE  S  S  Q     4x
|---------------------------|------------------------------||
|---------------------------|------------------------------||
|*--------------------------|-----------------------------*||
|*--9--9--9--8--8--8--7-----|-----------------------------*||
|---7--7--7--7--7--7--7--7--|--10--7-----5--7--------7-----||
|---0--0--0--0--0--0--0--0--|---0--0--0--0--0--0--0--0-----||


   uhm.. maybe double the 0s and a quick A chord diagramDbDb before A chord diagramEb MajorEb
   A chord diagramE MajorE                                                  S S A chord diagramE MajorE  A chord diagramE MajorE  A chord diagramE MajorE  S S A chord diagramE MajorE  A chord diagramE MajorE   4x
------------------------------------------------------------------------------||
------------------------------------------------------------------------------||
*----------------------------------------------------------------------------*||
*----------------------------------------------------------------------------*||
----------------------------------------------------------7--5---------7--5---||
---0--------------------------------------------------L-0-------0--L-0--------||


                                     PM       PM PM
   A chord diagramE MajorE  A chord diagramE MajorE  A chord diagramE MajorE  A chord diagramE MajorE  A chord diagramE MajorE  A chord diagramE MajorE  A chord diagramE MajorE  A chord diagramE MajorE      A chord diagramE MajorE  A chord diagramE MajorE  A chord diagramE MajorE  A chord diagramE MajorE  A chord diagramE MajorE  S  S  Q     4x
---------------------------|------------------------------||
---------------------------|------------------------------||
*--------------------------|-----------------------------*||
*--9--9--9--8--8--8--7-----|-----------------------------*||
---7--7--7--7--7--7--7--7--|--10--7-----5--7--------7-----||
---0--0--0--0--0--0--0--0--|---0--0--0--0--0--0--0--0-----||


   S S S S S S S S S S S S S S S S
------------------------------------||
------------------------------------||
*----------------------------------*||
*--5-5-5-5-5-5-5-5-5-5-5-5-5-5-5-5-*||
---7-7-7-7-7-7-7-7-7-7-7-7-7-7-7-7--||
------------------------------------||


  S                                                  S S S S S S S S S S S S S S
---------------------------------------------------------------------------------|
---------------------------------------------------------------------------------|
--8--------------------------------------------------8-8-8-8-8-8-8-8-8-8-8-8-8-8-|
---------------------------------------------------------------------------------|
--9--------------------------------------------------9-9-9-9-9-9-9-9-9-9-9-9-9-9-|
---------------------------------------------------------------------------------|


  A chord diagramE MajorE  A chord diagramE MajorE  A chord diagramE MajorE  A chord diagramE MajorE  A chord diagramE MajorE  A chord diagramE MajorE  A chord diagramE MajorE  A chord diagramE MajorE       A chord diagramE MajorE  S S A chord diagramE MajorE  A chord diagramE MajorE  A chord diagramE MajorE  S S A chord diagramE MajorE  A chord diagramE MajorE
--------------------------||------------------------------||
--------------------------||------------------------------||
--------------------------||*----------------------------*||
--------------7-----7-----||*----------------------------*||
--9-----9-----5-----5-----||----------7--5---------7--5---||
--7-----7-----------------||---0--L-0-------0--L-0--------||


   S S S S S S S S S S S S S S S S      S S S S S S S S S S S S S S S S
------------------------------------||----------------------------------|
------------------------------------||----------------------------------|
*----------------------------------*||--8-8-8-8-8-8-8-8-8-8-8-8-8-8-8-8-|
*--5-5-5-5-5-5-5-5-5-5-5-5-5-5-5-5-*||----------------------------------|
---7-7-7-7-7-7-7-7-7-7-7-7-7-7-7-7--||--9-9-9-9-9-9-9-9-9-9-9-9-9-9-9-9-|
------------------------------------||----------------------------------|


   A chord diagramE MajorE  A chord diagramE MajorE   A chord diagramE MajorE  A chord diagramE MajorE   A chord diagramE MajorE  A chord diagramE MajorE   A chord diagramE MajorE  A chord diagramE MajorE      A chord diagramE MajorE  S S A chord diagramE MajorE  A chord diagramE MajorE  A chord diagramE MajorE  S S A chord diagramE MajorE  A chord diagramE MajorE
-------------------------------|----------------------------|
-------------------------------|----------------------------|
--12-----12-----11-----11--L--|----------------------------|
-------------------------------|----------------------------|
-------------------------------|---------7--5---------7--5--|
-------------------------------|--0--L-0-------0--L-0-------|


  A chord diagramE MajorE                                     S S A chord diagramE MajorE  A chord diagramE MajorE  S S S S S S S S
------------------------------------------------------------------|
------------------------------------------------------------------|
------------------------------------------------------------------|
--------------------------------------------------9-9-9-9-9-9-9-9-|
--------------------------------------------7--5--9-9-9-9-9-9-9-9-|
--0-------------------------------------L-0-----------------------|


                                    PM PM PM PM PM PM PM
  S S S S S S S S A chord diagramE MajorE  A chord diagramE MajorE  A chord diagramE MajorE  A chord diagramE MajorE     A chord diagramE MajorE  A chord diagramE MajorE  A chord diagramE MajorE  A chord diagramE MajorE  A chord diagramE MajorE  A chord diagramE MajorE  A chord diagramE MajorE  A chord diagramE MajorE
------------------------------|--------------------------|
------------------------------|--------------------------|
------------------------------|--------------------------|
--8-8-8-8-8-8-8-8-------------|--------------------------|
--9-9-9-9-9-9-9-9-9--9--9--9--|--2-----------------------|
------------------0--0--0--0--|--0--0--0--0--0--0--0--0--|


  PM PM PM PM PM PM             PM PM PM
  A chord diagramE MajorE  A chord diagramE MajorE  A chord diagramE MajorE  A chord diagramE MajorE  A chord diagramE MajorE  A chord diagramE MajorE  A chord diagramE MajorE  A chord diagramE MajorE     A chord diagramE MajorE  A chord diagramE MajorE  A chord diagramE MajorE  A chord diagramE MajorE  A chord diagramE MajorE  A chord diagramE MajorE  A chord diagramE MajorE    A chord diagramE MajorE
--------------------------|----------------------------|
--------------------------|----------------------------|
--------------------------|----------------------------|
--------------------------|----------------------------|
--------------------1-----|--2-----------1--2--1br-----|
--0--0--0--0--0--0-----3--|--0--0--0--0-------------3--|


     PM PM PM                                    PM PM PM PM PM PM PM
  A chord diagramE MajorE  A chord diagramE MajorE  A chord diagramE MajorE  A chord diagramE MajorE  A chord diagramE MajorE  A chord diagramE MajorE  A chord diagramE MajorE  A chord diagramE MajorE       A chord diagramE MajorE  A chord diagramE MajorE  A chord diagramE MajorE  A chord diagramE MajorE     A chord diagramE MajorE  A chord diagramE MajorE  A chord diagramE MajorE  A chord diagramE MajorE  A chord diagramE MajorE  A chord diagramE MajorE  A chord diagramE MajorE  A chord diagramE MajorE  A chord diagramE MajorE  A chord diagramE MajorE
----------------------------|--------------|--------------------------------|
----------------------------|--------------|--------------------------------|
----------------------------|--------------|--------------------------------|
----------------------------|--------------|--------------------------------|
--2-----------1--2--4--4br--|--4--2--1-----|--2-----------------------1-----|
--0--0--0--0----------------|-----------3--|--0--0--0--0--0--0--0--0-----3--|


     PM PM PM                     PM PM PM
  A chord diagramE MajorE  A chord diagramE MajorE  A chord diagramE MajorE  A chord diagramE MajorE  A chord diagramE MajorE  A chord diagramE MajorE  A chord diagramE MajorE    A chord diagramE MajorE     A chord diagramE MajorE  A chord diagramE MajorE  A chord diagramE MajorE  A chord diagramE MajorE  A chord diagramE MajorE  A chord diagramE MajorE  A chord diagramE MajorE  A chord diagramE MajorE       A chord diagramE MajorE  A chord diagramE MajorE  A chord diagramE MajorE  A chord diagramE MajorE
----------------------------|----------------------------|--------------|
----------------------------|----------------------------|--------------|
----------------------------|----------------------------|--------------|
----------------------------|----------------------------|--------------|
--2-----------1--2--1br-----|--2-----------1--2--4--4br--|--4--2--1-----|
--0--0--0--0-------------3--|--0--0--0--0----------------|-----------3--|


           PM PM    PM PM    PM PM
  A chord diagramE MajorE  A chord diagramE MajorE  A chord diagramE MajorE  S  S  A chord diagramE MajorE  S  S  A chord diagramE MajorE  S  S     Q    A chord diagramE MajorE  A chord diagramE MajorE  A chord diagramE MajorE  A chord diagramE MajorE  Q
-----------------------------------|------------------------|
-----------------------------------|------------------------|
-----------------------------------|------------------------|
-----------------3--------3--------|--3---------------------|
--2--2--2--------1--------1--------|--1----2--2--2----------|
--0--0--0--0--0-----0--0-----0--0--|-------0--0--0----------|


  Bass Line
  W                     A chord diagramE MajorE  A chord diagramE MajorE  A chord diagramE MajorE  A chord diagramE MajorE  A chord diagramE MajorE  A chord diagramE MajorE  A chord diagramE MajorE  A chord diagramE MajorE
-------------------||---------------------------|
-------------------||---------------------------|
-------------------||*--------------------------|
-------------------||*--9--9--9--8--8--8--7-----|
-------------------||---7--7--7--7--7--7--7--7--|
-------------------||---0--0--0--0--0--0--0--0--|


         PM       PM PM
   A chord diagramE MajorE  A chord diagramE MajorE  A chord diagramE MajorE  A chord diagramE MajorE  A chord diagramE MajorE  S  S  Q     4x   A chord diagramE MajorE  S S A chord diagramE MajorE  A chord diagramE MajorE  A chord diagramE MajorE  S S A chord diagramE MajorE  A chord diagramE MajorE   4x
------------------------------||------------------------------||
------------------------------||------------------------------||
-----------------------------*||*----------------------------*||
-----------------------------*||*----------------------------*||
--10--7-----5--7--------7-----||----------7--5---------7--5---||
---0--0--0--0--0--0--0--0-----||---0--L-0-------0--L-0--------||


                                     PM       PM PM
   A chord diagramE MajorE  A chord diagramE MajorE  A chord diagramE MajorE  A chord diagramE MajorE  A chord diagramE MajorE  A chord diagramE MajorE  A chord diagramE MajorE  A chord diagramE MajorE      A chord diagramE MajorE  A chord diagramE MajorE  A chord diagramE MajorE  A chord diagramE MajorE  A chord diagramE MajorE  S  S  Q     4x
---------------------------|------------------------------||
---------------------------|------------------------------||
*--------------------------|-----------------------------*||
*--9--9--9--8--8--8--7-----|-----------------------------*||
---7--7--7--7--7--7--7--7--|--10--7-----5--7--------7-----||
---0--0--0--0--0--0--0--0--|---0--0--0--0--0--0--0--0-----||


   S S S S S S S S S S S S S S S S      S S S S S S S S S S S S S S S S
------------------------------------||----------------------------------|
------------------------------------||----------------------------------|
*----------------------------------*||--8-8-8-8-8-8-8-8-8-8-8-8-8-8-8-8-|
*--5-5-5-5-5-5-5-5-5-5-5-5-5-5-5-5-*||----------------------------------|
---7-7-7-7-7-7-7-7-7-7-7-7-7-7-7-7--||--9-9-9-9-9-9-9-9-9-9-9-9-9-9-9-9-|
------------------------------------||----------------------------------|


  A chord diagramE MajorE  A chord diagramE MajorE  A chord diagramE MajorE  A chord diagramE MajorE  A chord diagramE MajorE  A chord diagramE MajorE  A chord diagramE MajorE  A chord diagramE MajorE       A chord diagramE MajorE  S S A chord diagramE MajorE  A chord diagramE MajorE  A chord diagramE MajorE  S S A chord diagramE MajorE  A chord diagramE MajorE
--------------------------||------------------------------||
--------------------------||------------------------------||
--------------------------||*----------------------------*||
--------------7-----7-----||*----------------------------*||
--9-----9-----5-----5-----||----------7--5---------7--5---||
--7-----7-----------------||---0--L-0-------0--L-0--------||


   S S S S S S S S S S S S S S S S      S S S S S S S S S S S S S S S S
------------------------------------||----------------------------------|
------------------------------------||----------------------------------|
*----------------------------------*||--8-8-8-8-8-8-8-8-8-8-8-8-8-8-8-8-|
*--5-5-5-5-5-5-5-5-5-5-5-5-5-5-5-5-*||----------------------------------|
---7-7-7-7-7-7-7-7-7-7-7-7-7-7-7-7--||--9-9-9-9-9-9-9-9-9-9-9-9-9-9-9-9-|
------------------------------------||----------------------------------|


   A chord diagramE MajorE  A chord diagramE MajorE   A chord diagramE MajorE  A chord diagramE MajorE   A chord diagramE MajorE  A chord diagramE MajorE   A chord diagramE MajorE  A chord diagramE MajorE
-------------------------------|
-------------------------------|
--12-----12-----11-----11--L--|
-------------------------------|
-------------------------------|
-------------------------------|


  uhmmm maybe someone made a mistake here =P!
  A chord diagramE MajorE                                           S S A chord diagramE MajorE  A chord diagramE MajorE  A chord diagramE MajorE  S S A chord diagramE MajorE  A chord diagramE MajorE
---------------------------------------------------------------------|
---------------------------------------------------------------------|
---------------------------------------------------------------------|
-----------------------------------------------------5---------------|
--------------------------------------------------7------------7--5--|
--0-------------------------------------------L-0-------0--L-0-------|


  A chord diagramE MajorE  S S A chord diagramE MajorE  A chord diagramE MajorE  S S S S S S S S    S S S S S S S S  A chord diagramE MajorE   A chord diagramE MajorE   A chord diagramE MajorE   A chord diagramE MajorE
-------------------------------|----------------------------------|
-------------------------------|----------------------------------|
-------------------------------|----------------------------------|
---------------9-9-9-9-9-9-9-9-|--8-8-8-8-8-8-8-8-----------------|
---------7--5--9-9-9-9-9-9-9-9-|--9-9-9-9-9-9-9-9-10--10--10--10--|
--0--L-0-----------------------|-------------------0---0---0---0--|


     PM PM PM PM PM PM PM    PM PM PM PM PM PM
  A chord diagramE MajorE  A chord diagramE MajorE  A chord diagramE MajorE  A chord diagramE MajorE  A chord diagramE MajorE  A chord diagramE MajorE  A chord diagramE MajorE  A chord diagramE MajorE     A chord diagramE MajorE  A chord diagramE MajorE  A chord diagramE MajorE  A chord diagramE MajorE  A chord diagramE MajorE  A chord diagramE MajorE  A chord diagramE MajorE  A chord diagramE MajorE
--------------------------|--------------------------|
--------------------------|--------------------------|
--------------------------|--------------------------|
--------------------------|--------------------------|
--2-----------------------|--------------------1-----|
--0--0--0--0--0--0--0--0--|--0--0--0--0--0--0-----3--|


     PM PM PM                     PM PM PM
  A chord diagramE MajorE  A chord diagramE MajorE  A chord diagramE MajorE  A chord diagramE MajorE  A chord diagramE MajorE  A chord diagramE MajorE  A chord diagramE MajorE    A chord diagramE MajorE     A chord diagramE MajorE  A chord diagramE MajorE  A chord diagramE MajorE  A chord diagramE MajorE  A chord diagramE MajorE  A chord diagramE MajorE  A chord diagramE MajorE  A chord diagramE MajorE       A chord diagramE MajorE  A chord diagramE MajorE  A chord diagramE MajorE  A chord diagramE MajorE
----------------------------|----------------------------|--------------|
----------------------------|----------------------------|--------------|
----------------------------|----------------------------|--------------|
----------------------------|----------------------------|--------------|
--2-----------1--2--1br-----|--2-----------1--2--4--4br--|--4--2--1-----|
--0--0--0--0-------------3--|--0--0--0--0----------------|-----------3--|


     PM PM PM PM PM PM PM             PM PM PM
  A chord diagramE MajorE  A chord diagramE MajorE  A chord diagramE MajorE  A chord diagramE MajorE  A chord diagramE MajorE  A chord diagramE MajorE  A chord diagramE MajorE  A chord diagramE MajorE  A chord diagramE MajorE  A chord diagramE MajorE     A chord diagramE MajorE  A chord diagramE MajorE  A chord diagramE MajorE  A chord diagramE MajorE  A chord diagramE MajorE  A chord diagramE MajorE  A chord diagramE MajorE    A chord diagramE MajorE
--------------------------------|----------------------------|
--------------------------------|----------------------------|
--------------------------------|----------------------------|
--------------------------------|----------------------------|
--2-----------------------1-----|--2-----------1--2--1br-----|
--0--0--0--0--0--0--0--0-----3--|--0--0--0--0-------------3--|


     PM PM PM                                          PM PM    PM PM    PM PM
  A chord diagramE MajorE  A chord diagramE MajorE  A chord diagramE MajorE  A chord diagramE MajorE  A chord diagramE MajorE  A chord diagramE MajorE  A chord diagramE MajorE  A chord diagramE MajorE       A chord diagramE MajorE  A chord diagramE MajorE  A chord diagramE MajorE  A chord diagramE MajorE     A chord diagramE MajorE  A chord diagramE MajorE  A chord diagramE MajorE  S  S  A chord diagramE MajorE  S  S  A chord diagramE MajorE  S  S
----------------------------|--------------|-----------------------------------|
----------------------------|--------------|-----------------------------------|
----------------------------|--------------|-----------------------------------|
----------------------------|--------------|-----------------3--------3--------|
--2-----------1--2--4--4br--|--4--2--1-----|--2--2--2--------1--------1--------|
--0--0--0--0----------------|-----------3--|--0--0--0--0--0-----0--0-----0--0--|


                   hmm this sounds an octave lower...
  Q    A chord diagramE MajorE  A chord diagramE MajorE  A chord diagramE MajorE  A chord diagramE MajorE  A chord diagramE MajorE                                  S S
----------------------------------------------------------|
----------------------------------------------------------|
----------------------------------------------------------|
--3-------------------------------------------------------|
--1----2--2--2-----7------------------------------------7-|
-------0--0--0-----0------------------------------------0-|


  A chord diagramE MajorE    A chord diagramE MajorE  A chord diagramE MajorE  A chord diagramE MajorE  A chord diagramE MajorE  S S S S A chord diagramE MajorE     A chord diagramE MajorE  S S S S A chord diagramE MajorE  A chord diagramE MajorE  A chord diagramE MajorE  A chord diagramE MajorE  S S
------------------------------|-----------------------------|
------------------------------|-----------------------------|
------------------------------|-----------------------------|
------------------------------|-----------------------------|
--7br--L--5--7-----7-7-1-1-1--|-----5-5-5-5-5--5-----7----7-|
--0----0--0--0-----0-0-0-0-0--|-----0-0-0-0-0--0-----0----0-|


  A chord diagramE MajorE    A chord diagramE MajorE  A chord diagramE MajorE  A chord diagramE MajorE  A chord diagramE MajorE  S S S S A chord diagramE MajorE     A chord diagramE MajorE  S S S S A chord diagramE MajorE     A chord diagramE MajorE  A chord diagramE MajorE  A chord diagramE MajorE  A chord diagramE MajorE  S S A chord diagramE MajorE  S S A chord diagramE MajorE
------------------------------|----------------|----------------------------|
------------------------------|----------------|----------------------------|
------------------------------|----------------|----------------------------|
------------------------------|----------------|----------------------------|
--7br--L--5--7-----7-7-1-1-1--|-----5-5-5-5-5--|--4--4--4--4--4-4-5--5-5-4--|
--0----0--0--0-----0-0-0-0-0--|-----0-0-0-0-0--|--2--2--2--2--2-2-3--3-3-2--|


                                           tr
  H         Q       A chord diagramE MajorE  A chord diagramE MajorE  A chord diagramE MajorE  A chord diagramE MajorE  S S A chord diagramE MajorE  S S A chord diagramE MajorE        A chord diagramE MajorE  A chord diagramE MajorE  H
-----------------|-------------------------------|------------------|
-----------------|-------------------------------|------------------|
-----------------|-------------------------------|--------6~--------|
-----------------|-------------------------4(5)--|--L--4------------|
--4~--------L----|--4--4--4--4--4-4-5--5-5-------|------------------|
-----------------|--2--2--2--2--2-2-3--3-3-------|------------------|


                         tr
  A chord diagramE MajorE  A chord diagramE MajorE  A chord diagramE MajorE  A chord diagramE MajorE  S S A chord diagramE MajorE  S S A chord diagramE MajorE        H         Q
-------------------------------|-----------------|
-------------------------------|-----------------|
-------------------------------|-----------------|
-------------------------4(5)--|-----------------|
--4--4--4--4--4-4-5--5-5-------|--4~--------L----|
--2--2--2--2--2-2-3--3-3-------|-----------------|


                         tr
  A chord diagramE MajorE  A chord diagramE MajorE  A chord diagramE MajorE  A chord diagramE MajorE  S S A chord diagramE MajorE  S S A chord diagramE MajorE        A chord diagramE MajorE  A chord diagramE MajorE  H
-------------------------------|------------------|
-------------------------------|------------------|
-------------------------------|--------6~--------|
-------------------------4(5)--|--L--4------------|
--4--4--4--4--4-4-5--5-5-------|------------------|
--2--2--2--2--2-2-3--3-3-------|------------------|


    Clean                         Distorted
                                                                tr
    A chord diagramE MajorE     A chord diagramE MajorE  A chord diagramE MajorE  Q    Q    A chord diagramE MajorE   8x  A chord diagramE MajorE         A chord diagramE MajorE  A chord diagramE MajorE  A chord diagramE MajorE  S S A chord diagramE MajorE  S S A chord diagramE MajorE
|-----------------------------||--------------------------------------|
|-----------------------------||--------------------------------------|
|*---------------------------*||--------------------------------------|
|*-----------4-------5----L--*||--------------------------------4(5)--|
|---------4-------------------||--4---------4--4--4--4-4-5--5-5-------|
|---2-----------0-------------||--2---------2--2--2--2-2-3--3-3-------|


                                           tr
  H         Q       A chord diagramE MajorE  A chord diagramE MajorE  A chord diagramE MajorE  A chord diagramE MajorE  S S A chord diagramE MajorE  S S A chord diagramE MajorE        A chord diagramE MajorE  A chord diagramE MajorE  H
-----------------|-------------------------------|------------------|
-----------------|-------------------------------|------------------|
-----------------|-------------------------------|--------6~--------|
-----------------|-------------------------4(5)--|--L--4------------|
--4~--------L----|--4--4--4--4--4-4-5--5-5-------|------------------|
-----------------|--2--2--2--2--2-2-3--3-3-------|------------------|


                         tr
  A chord diagramE MajorE  A chord diagramE MajorE  A chord diagramE MajorE  A chord diagramE MajorE  S S A chord diagramE MajorE  S S A chord diagramE MajorE        H         Q
-------------------------------|-----------------|
-------------------------------|-----------------|
-------------------------------|-----------------|
-------------------------4(5)--|-----------------|
--4--4--4--4--4-4-5--5-5-------|--4~--------L----|
--2--2--2--2--2-2-3--3-3-------|-----------------|


                         tr
  A chord diagramE MajorE  A chord diagramE MajorE  A chord diagramE MajorE  A chord diagramE MajorE  S S A chord diagramE MajorE  S S A chord diagramE MajorE        A chord diagramE MajorE  A chord diagramE MajorE  H
-------------------------------|------------------|
-------------------------------|------------------|
-------------------------------|--------6~--------|
-------------------------4(5)--|--L--4------------|
--4--4--4--4--4-4-5--5-5-------|------------------|
--2--2--2--2--2-2-3--3-3-------|------------------|


    Clean
    A chord diagramE MajorE     A chord diagramE MajorE  A chord diagramE MajorE  Q    Q    A chord diagramE MajorE   8x
|-----------------------------||
|-----------------------------||
|*---------------------------*||
|*-----------4-------5----L--*||
|---------4-------------------||
|---2-----------0-------------||


   Distorted, w/Wah
   <
   A chord diagramE MajorE                A chord diagramE MajorE    A chord diagramE MajorE    A chord diagramE MajorE   A chord diagramE MajorE  Q      A chord diagramE MajorE
-------------------------------------------------|
-------------------------------------------------|
--11~--------------11~--11~--11~-----------------|
-------------------------------------9br----Lbr--|
-------------------------------------------------|
-------------------------------------------------|


  Timing is really fucked up in this part... sorry!
  A chord diagramE MajorE                                                 A chord diagramE MajorE  H
-----------------------------------------------------------------|
-----------------------------------------------------------------|
-----------------------------------------------------------------|
--L-------------------------------------------------7------------|
-------------------------------------------------------9~--------|
-----------------------------------------------------------------|


   <
   A chord diagramE MajorE    A chord diagramE MajorE    A chord diagramE MajorE    A chord diagramE MajorE   A chord diagramE MajorE  Q      A chord diagramE MajorE       A chord diagramE MajorE  H         A chord diagramE MajorE
-------------------------------------|------------------|
-------------------------------------|------------------|
--11~--11~--11~--11~-----9br----Lbr--|--L---------------|
-------------------------------------|-----7~-----------|
-------------------------------------|------------------|
-------------------------------------|------------------|


   Distorted, w/Wah
   <
   A chord diagramE MajorE                A chord diagramE MajorE    A chord diagramE MajorE    A chord diagramE MajorE   A chord diagramE MajorE  Q      A chord diagramE MajorE       A chord diagramE MajorE  A chord diagramE MajorE  H
-------------------------------------------------|------------------|
-------------------------------------------------|------------------|
--11~--------------11~--11~--11~-----------------|------------------|
-------------------------------------9br----Lbr--|--L--7------------|
-------------------------------------------------|--------9~--------|
-------------------------------------------------|------------------|


   <
   A chord diagramE MajorE    A chord diagramE MajorE    A chord diagramE MajorE    A chord diagramE MajorE   A chord diagramE MajorE  Q      A chord diagramE MajorE       A chord diagramE MajorE  H         A chord diagramE MajorE
-------------------------------------|------------------|
-------------------------------------|------------------|
--11~--11~--11~--11~-----9br----Lbr--|--L---------------|
-------------------------------------|-----7~-----------|
-------------------------------------|------------------|
-------------------------------------|------------------|


   A chord diagramE MajorE                                           A chord diagramE MajorE   A chord diagramE MajorE   A chord diagramE MajorE  S  A chord diagramE MajorE   Q    S
------------------------------------------------------------------------|
------------------------------------------------------------10--12----L-|
--11------------------------------------------11--11--11----------------|
------------------------------------------------------------------------|
------------------------------------------------------------------------|
------------------------------------------------------------------------|


   Q       Q       Q         Q.       Q.
---9-------9-------9------|------------------|
--12br----12br----12br----|--9b--------------|
--------------------------|----------11------|
--------------------------|------------------|
--------------------------|------------------|
--------------------------|------------------|


   |------3-----|  |---3--|
   S  S  A chord diagramE MajorE   S  S  S  S   S  S  S  T   T   T   T  A chord diagramE MajorE   A chord diagramE MajorE   A chord diagramE MajorE
--14-15-17--15-14----15p-14----------------------------------|
------------------17--------17-15-14h-15p-14h-15-------------|
-----------------------------------------------------14--16--|
-------------------------------------------------16----------|
-------------------------------------------------------------|
-------------------------------------------------------------|


   Did I mention that timing sucks?
                                   W
                                                  |---3---|
   A chord diagramE MajorE                               Q    A chord diagramE MajorE   S  S  S   S   S  S  S  S  S
---------------------------------------------------------------------14-|
-------------------------------------------14-15-17p-15p-14----14-15----|
--16b------------------------------L------------------------16----------|
------------------------------------------------------------------------|
------------------------------------------------------------------------|
------------------------------------------------------------------------|


      |---3---|
   S  S   S   S  S  S  S  A chord diagramE MajorE   A chord diagramE MajorE   A chord diagramE MajorE   Q
--15-14h-15p-14----14-18-19--18--15--14br----|
----------------17---------------------------|
---------------------------------------------|
---------------------------------------------|
---------------------------------------------|
---------------------------------------------|


  Notes ain't wrong, the timing is reaaaaally wrong!
                                                               |--3--|
  S                                                   S   S  S S   S S  S S  S
-----------------------------------------------------12p-10----9h-10-9----9-----|
------------------------------------------------------------12---------12---12p-|
--------------------------------------------------------------------------------|
--------------------------------------------------------------------------------|
--------------------------------------------------------------------------------|
--------------------------------------------------------------------------------|


                                     w/Wah
   |-----3----|
   A chord diagramE MajorE   A chord diagramE MajorE      A chord diagramE MajorE   Q     H            A chord diagramE MajorE    A chord diagramE MajorE   A chord diagramE MajorE   A chord diagramE MajorE   A chord diagramE MajorE   S    S  A chord diagramE MajorE   A chord diagramE MajorE
---------------------------------|--12b---9--12b--9--12b--Lpbr-9-11--12b--|
--12b--Lpbr--10------------------|----------------------------------------|
-----------------11~----L--------|----------------------------------------|
---------------------------------|----------------------------------------|
---------------------------------|----------------------------------------|
---------------------------------|----------------------------------------|


  A chord diagramE MajorE  S  S  S   S   S  S  S   S   S  S  A chord diagramE MajorE   S    S
--L--9-12-12b-12pb-9-12-12b-12pb-9-12-12b--Lpbr-9-|
--------------------------------------------------|
--------------------------------------------------|
--------------------------------------------------|
--------------------------------------------------|
--------------------------------------------------|


   A chord diagramE MajorE   A chord diagramE MajorE      A chord diagramE MajorE    A chord diagramE MajorE      A chord diagramE MajorE    A chord diagramE MajorE      A chord diagramE MajorE   A chord diagramE MajorE
--17b--Lpbr--17b---Lpbr--17b---Lpbr--17-------|
-----------------------------------------17b--|
----------------------------------------------|
----------------------------------------------|
----------------------------------------------|
----------------------------------------------|


                                                |---3--|  |---3--|
  S  S     S  S  S     S   S  S   S  S   S  S   S   S  S  S  S   S
-------------------------------------------------------------------|
--L--Lpbr-14-17b-Lpbr-17p-14-----14-17p-14-17b-17p-14----14-17p-14-|
-----------------------------16b----------------------16-----------|
-------------------------------------------------------------------|
-------------------------------------------------------------------|
-------------------------------------------------------------------|


   |--3--|   |--3--|  |---3--|  |---3--|  |--3--|   |--3--|
   S  S  S   S  S  S  S   S  S  S  S   S  S  S  S   S  S  S  S   S  S   S
--------------------------------------------------------------------------|
-----14-17p-14----14-17p-14----14-17p-14----14-17p-14----14-17p-14-16p-14-|
--16-----------16-----------16-----------16-----------16------------------|
--------------------------------------------------------------------------|
--------------------------------------------------------------------------|
--------------------------------------------------------------------------|


                                       |--3--|  |--3--|
   S  S  S  S  S  S  S  S  S  S  S  S  S  S  S  S  S  S
--------------------------------------------------------|
-----14----------------------------------14-17----14-17-|
--17----16-14-16-14----14-16-14----14-16-------16-------|
--------------------16----------16----------------------|
--------------------------------------------------------|
--------------------------------------------------------|


   Finally! Shitty solo witch I couldn't tab is over!
   S                                                  Q      S   S  S   S  Q
--------------------------------------------------------------------------------|
--14-------------------------------------------------17b----17p-14-17p-14-------|
--------------------------------------------------------------------------16b---|
--------------------------------------------------------------------------------|
--------------------------------------------------------------------------------|
--------------------------------------------------------------------------------|


  S S S S S S S S S S S S S S S S    S S S S S S S S S S S S S S S S
----------------------------------|----------------------------------|
----------------------------------|----------------------------------|
----------------------------------|----------------------------------|
--4-4-4-4-4-4-4-4-7-7-6-6-4-4-4-4-|--4-4---------4-4-7-7-6-6-4-4-4-4-|
----------------------------------|------4-4-4-4---------------------|
----------------------------------|----------------------------------|


  S S S S S S S S S S S S S S S S    S S S S S S S S S S S S S S S S
----------------------------------|----------------------------------|
----------------------------------|----------------------------------|
----------------------------------|----------------------------------|
--4-4-------------7-7-6-6-4-4-4-4-|--4-4-------------7-7-6-6-4-4-4-4-|
------5-5-5-5-4-4-----------------|------6-6-6-6-4-4-----------------|
----------------------------------|----------------------------------|


  S  S S  S S  S S  S S  S S  S S  S S  S
------------------------------------------|
------------------------------------------|
------------------------------------------|
--6p-4------7p-5------8p-6------9p-7------|
-------6p-4------7p-5------8p-6------9p-7-|
------------------------------------------|


   S  S  S  S  S  S  S  S  S   S  S   S  S   S  S   S
------------------------------------------------------|
------------------------------------------------------|
------------------------------------------------------|
--10p-8-------11p-9-------12p-10--------13p-11--------|
--------10p-8-------11p-9--------12p-10--------13p-11-|
------------------------------------------------------|


  S S A chord diagramE MajorE  S S A chord diagramE MajorE  S S A chord diagramE MajorE  S S A chord diagramE MajorE     Q     S  S  S  S  S S  S  S  S  S  S S
------------------------------|-------13p-8-11p-8----8-13p-8-11p-8----8-|
------------------------------|-------------------11---------------11---|
------------------------------|-----------------------------------------|
------5------5------5------5--|-----------------------------------------|
------3------3------3------3--|-----------------------------------------|
--2-2----2-2----2-2----2-2----|-----------------------------------------|


   S  S  S S  S  S  S  S  S S  S  S  S  S  S S
--13p-8----8-13p-8-11p-8----8-13p-8-11p-8----8-|
--------11---------------11---------------11---|
-----------------------------------------------|
-----------------------------------------------|
-----------------------------------------------|
-----------------------------------------------|


   S   S  S   S  S  S  S   S  S   S  S  S  S   S  S   S
--16p-11-14p-11----11-16p-11-14p-11----11-16p-11-14p-11-|
----------------14------------------14------------------|
--------------------------------------------------------|
--------------------------------------------------------|
--------------------------------------------------------|
--------------------------------------------------------|


   A chord diagramE MajorE   A chord diagramE MajorE      A chord diagramE MajorE   A chord diagramE MajorE      A chord diagramE MajorE     A chord diagramE MajorE   Q        A chord diagramE MajorE  S S A chord diagramE MajorE  A chord diagramE MajorE  A chord diagramE MajorE  S S A chord diagramE MajorE  A chord diagramE MajorE
----------------------------------17b----|----------------------------|
--17b--Lpbr--17b--Lpbr--17br--14---------|----------------------------|
-----------------------------------------|----------------------------|
-----------------------------------------|---------5--4---------9--7--|
-----------------------------------------|----------------------------|
-----------------------------------------|--0--L-0-------0--L-0-------|


  A chord diagramE MajorE  S S A chord diagramE MajorE  A chord diagramE MajorE  A chord diagramE MajorE  S S  A chord diagramE MajorE   A chord diagramE MajorE     A chord diagramE MajorE  S S A chord diagramE MajorE  A chord diagramE MajorE  A chord diagramE MajorE  S S A chord diagramE MajorE  A chord diagramE MajorE
------------------------------|----------------------------|
------------------------------|----------------------------|
---------9--7---------12--11--|----------------------------|
------------------------------|---------5--4---------9--7--|
------------------------------|----------------------------|
--0--L-0-------0--L-0---------|--0--L-0-------0--L-0-------|


   A chord diagramE MajorE   A chord diagramE MajorE   A chord diagramE MajorE   A chord diagramE MajorE   A chord diagramE MajorE   A chord diagramE MajorE   A chord diagramE MajorE  A chord diagramE MajorE      W                   W
--15--14--17--15--19--17--19--L--|-------------------|-------------------|
----------------------------------|-------------------|-------------------|
----------------------------------|-------------------|-------------------|
----------------------------------|-------------------|-------------------|
----------------------------------|-------------------|-------------------|
----------------------------------|-------------------|-------------------|


                                      PM       PM PM
    A chord diagramE MajorE  A chord diagramE MajorE  A chord diagramE MajorE  A chord diagramE MajorE  A chord diagramE MajorE  A chord diagramE MajorE  A chord diagramE MajorE  A chord diagramE MajorE      A chord diagramE MajorE  A chord diagramE MajorE  A chord diagramE MajorE  A chord diagramE MajorE  A chord diagramE MajorE  S  S  Q     4x
|---------------------------|------------------------------||
|---------------------------|------------------------------||
|*--------------------------|-----------------------------*||
|*--9--9--9--8--8--8--7-----|-----------------------------*||
|---7--7--7--7--7--7--7--7--|--10--7-----5--7--------7-----||
|---0--0--0--0--0--0--0--0--|---0--0--0--0--0--0--0--0-----||


   A chord diagramE MajorE  S S A chord diagramE MajorE  A chord diagramE MajorE  A chord diagramE MajorE  S S A chord diagramE MajorE  A chord diagramE MajorE        S S S S S S S S S S S S S S S S
------------------------------||------------------------------------||
------------------------------||------------------------------------||
*----------------------------*||*----------------------------------*||
*----------------------------*||*--5-5-5-5-5-5-5-5-5-5-5-5-5-5-5-5-*||
----------7--5---------7--5---||---7-7-7-7-7-7-7-7-7-7-7-7-7-7-7-7--||
---0--L-0-------0--L-0--------||------------------------------------||


  S S S S S S S S S S S S S S S S    A chord diagramE MajorE  A chord diagramE MajorE  A chord diagramE MajorE  A chord diagramE MajorE  A chord diagramE MajorE  A chord diagramE MajorE  A chord diagramE MajorE  A chord diagramE MajorE
----------------------------------|--------------------------|
----------------------------------|--------------------------|
--8-8-8-8-8-8-8-8-8-8-8-8-8-8-8-8-|--------------------------|
----------------------------------|--------------7-----7-----|
--9-9-9-9-9-9-9-9-9-9-9-9-9-9-9-9-|--9-----9-----5-----5-----|
----------------------------------|--7-----7-----------------|


    A chord diagramE MajorE  S S A chord diagramE MajorE  A chord diagramE MajorE  A chord diagramE MajorE  S S A chord diagramE MajorE  A chord diagramE MajorE        S S S S S S S S S S S S S S S S
|------------------------------||------------------------------------||
|------------------------------||------------------------------------||
|*----------------------------*||*----------------------------------*||
|*----------------------------*||*--5-5-5-5-5-5-5-5-5-5-5-5-5-5-5-5-*||
|----------7--5---------7--5---||---7-7-7-7-7-7-7-7-7-7-7-7-7-7-7-7--||
|---0--L-0-------0--L-0--------||------------------------------------||


  S S S S S S S S S S S S S S S S     A chord diagramE MajorE  A chord diagramE MajorE   A chord diagramE MajorE  A chord diagramE MajorE   A chord diagramE MajorE  A chord diagramE MajorE   A chord diagramE MajorE  A chord diagramE MajorE
----------------------------------|-------------------------------|
----------------------------------|-------------------------------|
--8-8-8-8-8-8-8-8-8-8-8-8-8-8-8-8-|--12-----12-----11-----11--L--|
----------------------------------|-------------------------------|
--9-9-9-9-9-9-9-9-9-9-9-9-9-9-9-9-|-------------------------------|
----------------------------------|-------------------------------|


  A chord diagramE MajorE  S S A chord diagramE MajorE  A chord diagramE MajorE  A chord diagramE MajorE  S S A chord diagramE MajorE  A chord diagramE MajorE     A chord diagramE MajorE  S S A chord diagramE MajorE  A chord diagramE MajorE  S S S S S S S S
----------------------------|-------------------------------|
----------------------------|-------------------------------|
----------------------------|-------------------------------|
----------------------------|---------------9-9-9-9-9-9-9-9-|
---------7--5---------7--5--|---------7--5--9-9-9-9-9-9-9-9-|
--0--L-0-------0--L-0-------|--0--L-0-----------------------|


                                    PM PM PM PM PM PM PM
  S S S S S S S S A chord diagramE MajorE  A chord diagramE MajorE  A chord diagramE MajorE  A chord diagramE MajorE     A chord diagramE MajorE  A chord diagramE MajorE  A chord diagramE MajorE  A chord diagramE MajorE  A chord diagramE MajorE  A chord diagramE MajorE  A chord diagramE MajorE  A chord diagramE MajorE
------------------------------|--------------------------|
------------------------------|--------------------------|
------------------------------|--------------------------|
--8-8-8-8-8-8-8-8-------------|--------------------------|
--9-9-9-9-9-9-9-9-9--9--9--9--|--2-----------------------|
------------------0--0--0--0--|--0--0--0--0--0--0--0--0--|


  PM PM PM PM PM PM             PM PM PM
  A chord diagramE MajorE  A chord diagramE MajorE  A chord diagramE MajorE  A chord diagramE MajorE  A chord diagramE MajorE  A chord diagramE MajorE  A chord diagramE MajorE  A chord diagramE MajorE     A chord diagramE MajorE  A chord diagramE MajorE  A chord diagramE MajorE  A chord diagramE MajorE  A chord diagramE MajorE  A chord diagramE MajorE  A chord diagramE MajorE    A chord diagramE MajorE
--------------------------|----------------------------|
--------------------------|----------------------------|
--------------------------|----------------------------|
--------------------------|----------------------------|
--------------------1-----|--2-----------1--2--1br-----|
--0--0--0--0--0--0-----3--|--0--0--0--0-------------3--|


     PM PM PM                                    PM PM PM PM PM PM PM
  A chord diagramE MajorE  A chord diagramE MajorE  A chord diagramE MajorE  A chord diagramE MajorE  A chord diagramE MajorE  A chord diagramE MajorE  A chord diagramE MajorE  A chord diagramE MajorE       A chord diagramE MajorE  A chord diagramE MajorE  A chord diagramE MajorE  A chord diagramE MajorE     A chord diagramE MajorE  A chord diagramE MajorE  A chord diagramE MajorE  A chord diagramE MajorE  A chord diagramE MajorE  A chord diagramE MajorE  A chord diagramE MajorE  A chord diagramE MajorE  A chord diagramE MajorE  A chord diagramE MajorE
----------------------------|--------------|--------------------------------|
----------------------------|--------------|--------------------------------|
----------------------------|--------------|--------------------------------|
----------------------------|--------------|--------------------------------|
--2-----------1--2--4--4br--|--4--2--1-----|--2-----------------------1-----|
--0--0--0--0----------------|-----------3--|--0--0--0--0--0--0--0--0-----3--|


     PM PM PM                     PM PM PM
  A chord diagramE MajorE  A chord diagramE MajorE  A chord diagramE MajorE  A chord diagramE MajorE  A chord diagramE MajorE  A chord diagramE MajorE  A chord diagramE MajorE    A chord diagramE MajorE     A chord diagramE MajorE  A chord diagramE MajorE  A chord diagramE MajorE  A chord diagramE MajorE  A chord diagramE MajorE  A chord diagramE MajorE  A chord diagramE MajorE  A chord diagramE MajorE       A chord diagramE MajorE  A chord diagramE MajorE  A chord diagramE MajorE  A chord diagramE MajorE
----------------------------|----------------------------|--------------|
----------------------------|----------------------------|--------------|
----------------------------|----------------------------|--------------|
----------------------------|----------------------------|--------------|
--2-----------1--2--1br-----|--2-----------1--2--4--4br--|--4--2--1-----|
--0--0--0--0-------------3--|--0--0--0--0----------------|-----------3--|


             PM PM    PM PM    PM PM                  PM PM PM PM PM PM
    A chord diagramE MajorE  A chord diagramE MajorE  A chord diagramE MajorE  S  S  A chord diagramE MajorE  S  S  A chord diagramE MajorE  S  S     Q    A chord diagramE MajorE  A chord diagramE MajorE  A chord diagramE MajorE  S  S  S  S  S  S   4x
|------------------------------------|-----------------------------------||
|------------------------------------|-----------------------------------||
|*-----------------------------------|----------------------------------*||
|*-----------------3--------3--------|--3-------------------------------*||
|---2--2--2--------1--------1--------|--1----2--2--2---------------------||
|---0--0--0--0--0-----0--0-----0--0--|-------0--0--0--0--0--0--0--0--0---||


  Q    A chord diagramE MajorE  A chord diagramE MajorE  A chord diagramE MajorE  A chord diagramE MajorE  H
----------------------------||
----------------------------||
----------------------------||
--3-------------------------||
--1----2--2--2--------------||
-------0--0--0--------------||


Duration 🏷Legend
---------------
W - whole
H - half
Q - quarter
A chord diagramE MajorE - 8th
S - 16th
T - 32nd
X - 64th
. - note dotted
|-n-|  - n-tuplets


Tablature 🏷Legend
----------------
L - tied note
x - dead note
g - grace note
(n) - ghost note
> - accentuded note
NH - natural harmonic
AH - artificial harmonic
TH - tapped harmonic
SH - semi harmonic
PH - pitch harmonic
h - hammer on
p - pull off
b - bend
br - bendRelease
pb - preBend
pbr - preBendRelease
brb - bendReleaseBend

/ - tremolo bar dip

 - tremolo bar dive
-/n - tremolo bar Release up
/n - tremolo bar inverted dip
/n - tremolo bar return
-
 - tremolo bar Release down
S - shift slide
s - legato slide
/ -  slide into from below or out of upwards
 -  slide into from above or out of downwards
~ - vibrato
W - wide vibrato
tr - trill
TP - tremolo picking
T - tapping
S - slap
P - pop
< - fade in
^ - brush up
v - brush down

Almost there ...

Sign in to get your own page with links to favourite songs and more. You are just one click away...

Login with Facebook Login with Google