Log in

One click and you are in

Login with Facebook Login with Google

Why sign up and log in

Guitar Tabs Explorer
Metallica bass tabs for Cunning stunts

Bass tabs

Artist : Metallica
Album : Cunning Stunts
Tab by : Gautam Penumetcha


Tuning: Standard Eb (Eb, Ab, Db, Gb)

Here is the fun little solo Jason does while sitting down.

Part A:

|--14-16-14-13--14-16-14-13--14-13-11----------14----------14-----------|
|-------------------------------------14-11-------11----11----11--------|
|-------------------------------------------12-------12----------12-----|
|0------------------------------------------------------------------0-0-|

|--14-16-14-13--14-16-14-13--14-13-11----------14----------14-----------|
|-------------------------------------14-11-------11----11----11----0-0-|
|-------------------------------------------12-------12----------12-----|
|-----------------------------------------------------------------------|

Part B:

|----11-------11-----------11----------11--------------------|
|-12----12-------12-----12----12----12----12-----------------|
|-----------0---------0-----------0-----------0--------------|
|------------------------------------------------------------|

timing is a little different for this bar, so listen for it :)
|-----12----12------12---------------------------------------|
|---9----------9-------9-------------------------------------|
|-0-------0-------0-------0----------------------------------|
|------------------------------------------------------------|

|----11----------11----------11-------11---------------------|
|-12----12----12----12----12----12-------12------------------|
|-----------0-----------0-----------0------------------------|
|------------------------------------------------------------|

                  end by strumming
|-----12------12-----------------|-----12----------------------|
|---9----9-------9---------------|-----9-----------------------|
|-0---------0------0--0-0--------|-----0-----------------------|
|-------------------------0------|-----------------------------|


Repeat Part A
Repeat Part B (with minor variations)

Play intros of My Friend of Misery and Sanitarium
segue into Nothing Else Matters

---All of this is my own work---

Other versions of Cunning Stunts

Cunning stunts albumBass tabs

Almost there ...

Sign in to get your own page with links to favourite songs and more. You are just one click away...

Login with Facebook Login with Google