Log in

One click and you are in

Login with Facebook Login with Google

Why sign up and log in

Guitar Tabs Explorer
Metallica tabs for Cunning stunts backstage jam1

Guitar tabs

PM---|                                PM---|
|--------------------------------|-----------------------------------|
|--------------------------------|-----------------------------------|
|--------------------------------|----------12(12)x-----------------|
|--------7--9--------------------|----------12(12)x-----------------|
|--------5--7---5h7p5------------|-------------------5h7p5-----------|
|0-0-0-0---------------7-5-3----|-0-0-0-0-----------------7-5-3----|

               PM---|                                PM---|
|--------------------------------|-----------------------------------|
|--------------------------------|-----------------------------------|
|--------------------------------|----------12(12)x-----------------|
|--------7--9--------------------|----------12(12)x-----------------|
|--------5--7---5h7p5------------|-------------------5h7p5-----------|
|0-0-0-0---------------7-5-3----|-0-0-0-0-----------------7-5-3----|

               PM---|                               PM---|
|--------------------------------|-----------------------------------|
|--------------------------------|-----------------------------------|
|--------------------------------|----------12(12)x-----------------|
|--------7--9--------------------|----------12(12)x-----------------|
|--------5--7---5h7p5------------|-------------------5h7p5-----------|
|0-0-0-0---------------7-5-3----|-0-0-0-0-----------------7-5-3----|

               PM---|
|--------------------------------|-----------------------------------|
|--------------------------------|-----------------------------------|
|--------------------------------|-----------------------------------|
|--------7--9--------------------|---------5-7-----------------------|
|--------5--7---5h7p5------------|-5-7-7-7-----7-7-5-7-7-7-----------|
|0-0-0-0---------------7-5-3----|-------------------------5/73-----|


|-----------------------------------|--------------------------------|
|-----------------------------------|--------------------------------|
|-----------------------------------|--------------------------------|
|---------5-7-----------------------|---------5-7--------------------|
|-5-7-7-7-----7-7-5-7-7-7-----------|-5-7-7-7-----(7)----------------|
|-------------------------5/73-----|--------------------------------|

Other versions of Cunning Stunts Backstage Jam1

Cunning stunts backstage jamTabs

Almost there ...

Sign in to get your own page with links to favourite songs and more. You are just one click away...

Login with Facebook Login with Google