Log in

One click and you are in

Login with Facebook Login with Google

Why sign up and log in

Guitar Tabs Explorer
Metallica bass tabs for Cunning stunts album

Bass tabs with lyrics

Metallica
Cunning Stunts

So What

Intro:
|--------------------------------|--------------------------------|
|-------------Guitar-------------|--------------------------------|
|---------------x4---------------|--------------------------------|
|--------------------------------|14-------------(14)------------|

|--------------------------------|--------------------------------|
|--------------------------------|--------------------------------|
|--------------------------------|--------------------------------|
|-5-------5---5---5---0---3---5--|-5-------5---5---5---0---3---5--|

|--------------------------------|--------------------------------|
|--------------------------------|--------------------------------|
|--------------------------------|-----------------------------3--|
|-5---0---3---5---5---0---3---5--|-5-------5---5---5-------5------|


Verse 1, 2, 3, 4:
|--------------------------------|--------------------------------|
|*-------------------------------|--------------------------------|
|*5-------5---5---5---5---5---5--|-5---5---5---5---5---5---5---5--|
|--------------------------------|--------------------------------|

|--------------------------------|--------------------------------|
|--------------------------------|--------------------------------|
|-5---5---5---5---5---5---5---5--|-5---5---5---5---5---5---3---3--|
|--------------------------------|--------------------------------|

|--------------------------------|--------------------------------|
|--------------------------------|--------------------------------|
|--------------------------------|--------------------------------|
|-5-------5---5---5---0---3---5--|-5-------5---5---5---0---3---5--|

|--------------------------------|--------------------------------|
|--------------------------------|--------------------------------|
|--------------------------------|-----------------------------3--|
|-5---0---3---5---5---0---3---5--|-5-------5---5---5-------5------|

|--------------------------------|--------------------------------|
|--------------------------------|--------------------------------|
|-5-------5---5---5---5---5---5--|-5---5---5---5---5---5---5---5--|
|--------------------------------|--------------------------------|

|--------------------------------|--------------------------------|
|--------------------------------|--------------------------------|
|-5---5---5---5---5---5---5---5--|-5---5---5---5---5---5---3---3--|
|--------------------------------|--------------------------------|

|--------------------------------|--------------------------------|
|--------------------------------|--------------------------------|
|--------------------------------|--------------------------------|
|-5-------5---5---5---0---3---5--|-5-------5---5---5---0---3---5--|

|--------------------------------|--------------------------------|
|--------------------------------|--------------------------------|
|--------------------------------|--------------------------------|
|-5---0---3---5---5---0---3---5--|-5-------5---5---5---5---5-----|

|--------------------------------|--------------------------------|
|--------------------------------|--------------------------------|
|--------------------------------|--------------------------------|
|-1-------1---1---1---1---1---3--|-6---6---6---6---6---6---6---6--|

|--------------------------------|--------------------------------|
|--------------------------------|--------------------------------|
|--------------------------------|--------------------------------|
|-5---5---5---5---5---0---3---5--|-5---5---5---5---5-------5---3--|

|--------------------------------|--------------------------------|
|--------------------------------|--------------------------------|
|--------------------------------|--------------------------------|
|-1-------1---1---1---1---1---3--|-6---6---6---6---6---6---6---6--|

|--------------------------------|--------------------------------|
|--------------------------------|--------------------------------|
|--------------------------------|--------------------------------|
|-5-------5---5---5---0---3---5--|-5-------5---5---5---0---3---5--|

                 1. 2. * to Coda
|--------------------------------|--------------------------------|
|--------------------------------|-------------------------------*|
|--------------------------------|---------------------------3/7-*|
|-5---0---3---5---5---0---3---5--|-5-------5---5---5---5---5------|

                 3.
                 |--------------------------------|
                 |--------------------------------|
                 |-----------------5---7---9---7--|
                 |-5-------5---5------------------|

Guitar Solo:
|--------------------------------|--------------------------------|
|--------------------------------|*------------------------------*|x 3
|-5-------5---5---5---5---5---5--|*5---5---5---5---5---5---5---5-*|
|--------------------------------|--------------------------------|

|--------------------------------|--------------------------------|
|--------------------------------|--------------------------------|
|--------------------------------|--------------------------------|
|-5-------5---5---5---0---3---5--|-5-------5---5---5---0---3---5--|

|--------------------------------|--------------------------------|
|--------------------------------|--------------------------------|
|--------------------------------|-----------------------------3--|
|-5---0---3---5---5---0---3---5--|-5-------5---5---5-------5------|

|--------------------------------|--------------------------------|
|--------------------------------|-----------------3---3---5---5--|
|-5-------5---5---5---5---5---5--|-5---5---5---5------------------|
|--------------------------------|--------------------------------|

|-------------------------5---5--|-7---7---7---7---7---7---------|
|-3---3---5---5---7---7----------|--------------------------------|
|--------------------------------|--------------------------------|
|--------------------------------|--------------------------------|

|--------------------------------|--------------------------------|
|--------------------------------|--------------------------------|
|--------------------------------|--------------------------------|
|-5-------5---5---5---0---3---5--|-5-------5---5---5---0---3---5--|

|--------------------------------|--------------------------------|
|--------------------------------|--------------------------------|
|--------------------------------|--------------------------------|
|-5---0---3---5---5---0---3---5--|-5-------5---5---5---5---5-----|

|--------------------------------|--------------------------------|
|--------------------------------|--------------------------------|
|--------------------------------|--------------------------------|
|-1-------1---1---1---1---1---3--|-6---6---6---6---6---6---6---6--|

|--------------------------------|--------------------------------|
|--------------------------------|--------------------------------|
|--------------------------------|--------------------------------|
|-5---5---5---5---5---0---3---5--|-5---5---5---5---5---0---3---5--|

|--------------------------------|--------------------------------|
|--------------------------------|--------------------------------|
|--------------------------------|-----------------------------7--|
|-5---0---3---5---5---0---3---5--|-5---5---5---5---5---5---5---0--|

Coda:
|--------------------------------|--------------------------------|
|--------------------------------|--------------------------------|
|--------------------------------|--------------------------------|
|-5---0---3---5------------------|(5)-----------------------------|

|--------------------------------|--------------------------------|
|--------------------------------|--------------------------------|
|--------------------------------|--------------------------------|
|(5)-----------------------------|(5)-----------------------------|

|--------------------------------|
|--------------------------------|
|--------------------------------|
|-5---/--12---------------------| End

Creeping Death
Time 4/4
beat 184


Intro:

|Fig.1
|--------------------------------|--------------------------------|
|*-------------------------------|--------------------------------|
|*------------------------7------|(7)-----------------------------|
|-0---0---0---0---0--------------|--------------------------------|

                             end Fig.1|
|--------------------------------|--------------------------------|
|--------------------------------|-------------------------------*|
|-------------------------7---5--|(5)----------------------------*|
|-0---0---0---0---0--------------|--------------------------------|

|Fig.1A
|--------------------------------|--------------------------------|
|*-------------------------------|--------------------------------|
|*------------------------7------|(7)--------------7--------------|
|-0---0---0---0---0--------------|--------------------------------|

                            end Fig.1A|
|--------------------------------|--------------------------------|
|--------------------------------|-------------------------------*|
|-------------------------7---5--|(5)--------------5-------------*|
|-0---0---0---0---0--------------|--------------------------------|

|--------------------------------|--------------------------------|
|--------------------------------|--------------------------------|
|--------------------------------|--------------------------------|
|---------5-------3-------2------|-0------------------------------|

|--------------------------------|--------------------16--17--16-|
|------------- x 6 --------------|--------------------------------|
|--------------------------------|--------------------------------|
|--------------------------------|--------------------------------|

|Fig.2                          end Fig.2|
|--------------------------------|--------------------------------|
|*-------------------------------|-------------------------------*|x 4
|*-------------------------------|-----------------2---3---2---0-*|
|-0---0---0---0---0---0---0---0--|-0---0---0---0------------------|

|Fig.3                          end Fig.3|
|--------------------------------|--------------------------------|
|*-------------------------------|-------------------------------*|x 4
|*-------------------------------|-------------------------------*|
|-0---0---3-------0---0---3------|-0---0---2---2---2---2---2---2--|

|--------------------------------|--------------------------------|
|*-------------------------------|-------------------------------*|
|*-------------------------------|-----------------2---3---2---0-*|
|-0---0---0---0---0---0---0---0--|-0---0---0---0------------------|

|Fig.4
|--------------------------------|--------------------------------|
|--------------------------------|--------------------------------|
|---------7---------------7------|-----7---5-----------7---5---7--|
|-0---------------0---0-------0--|(0)-----------------------------|

                             end Fig.4|
|--------------------------------|--------------------------------|
|--------------------------------|--------------------------------|
|-5---7---5-------4-------0------|-2-------2-------4--------------|
|--------------------------------|-------------------------2------|


Verse 1, 2, 3:

  Repeat Fig.2 x 8
  Repeat Fig.3 x 4


Chorus:

|Fig.5
|--------------------------------|--------------------------------|
|--------------------------------|--------------------------------|
|--------------------------------|---------------------3-------5--|
|-0-------0-------0---0---0---0--|(0)--0---0---0---0--------------|

|--------------------------------|--------------------------------|
|--------------------------------|--------------------------------|
|(5)------5-------5---5---5---5--|-5---5---5---5---8-------8------|
|--------------------------------|--------------------------------|

|--------------------------------|--------------------------------|
|--------------------------------|--------------------------------|
|-7-------7-------7---7---7---7--|(7)--7---7---7---7---3-------5--|
|--------------------------------|--------------------------------|

|--------------------------------|--------------------------------|
|--------------------------------|--------------------------------|
|(5)------5-------5---5---5---5--|--------------------------------|
|--------------------------------|-1---1---1---1---3---3---3-----|

|--------------------------------|--------------------------------|
|--------------------------------|--------------------------------|
|--------------------------------|---------------------3-------5--|
|-0-------0-------0---0---0---0--|(0)--0---0---0---0--------------|

|--------------------------------|--------------------------------|
|--------------------------------|--------------------------------|
|(5)------5-------5---5---5---5--|-5---5---5---5---8-------8------|
|--------------------------------|--------------------------------|

|--------------------------------|--------------------------------|
|--------------------------------|--------------------------------|
|-7-------7-------7---7---7---7--|(7)--7---7---7---7---3-------5--|
|--------------------------------|--------------------------------|

                             end Fig.5|
|--------------------------------|--------------------------------|3rd
|--------------------------------|--------------------------------|Time
|(5)------5---5---5---5---5---5--|-5-------2-------4--------------|to
|--------------------------------|-------------------------2------|Coda

Repeat Fig.2 x 2
Repeat Fig.4

Guitar Solo:
|--------------------------------|--------------------------------|
|*-------------------------------|--------------------------------|
|*-------------------------------|-----------------2---3---2---0--|
|-0---0---0---0---0---0---0---0--|-0---0---0---0------------------|

|--------------------------------|--------------------------------|
|--------------------------------|-------------------------------*|x 4
|-0---0---0---0---0---0---0---0--|-0---0---0---0---0-------3-----*|
|--------------------------------|--------------------------------|

Repeat Fig.3 x 4
Repeat Fig.5

|--------------------------------|
|--------------------------------|
|--------------------------------|
|-0------------------------------|


Bridge:
 half-time
|Fig.6
|--------------------------------|--------------------------------|
|*-------------------------------|--------------------------------|
|*----------------7---7---7---7--|-8---8---8-------5--------------|
|-0------------------------------|--------------------------------|

                             end Fig.6|
|--------------------------------|--------------------------------|
|--------------------------------|-------------------------------*|x 6
|-7------------------------------|-------------------------------*|
|-----------------0---0---0---0--|-3-------3---3---1-------1------|

Repeat Fig.2 x 2

|--------------------------------|--------------------------------|
|--------------------------------|--------------------------------|
|--------------------------------|-----------------5----------(5)|
|-0------------------------------|-0-----1-----3------------------|

Coda:
|--------------------------------|--------------------------------|
|*----------------------------2--|(2)-----------------------------|
|*----------------------------2--|(2)-----------------------------|
|-0---0---0---0---0---0---0------|---------0---0---0---0---3---2--|

|--------------------------------|--------------------------------|
|-----------------------------3--|(3)----------------------------*|x 6
|-----------------------------3--|(3)------3---3---3---3---5---5-*|
|-0---0---0---0---0---0---0------|--------------------------------|

|--------------------------------|--------------------------------|
|--------------------------------|--------------------------------|
|---------7-------5-------3---2--|(2)-----------------------------|
|-0---0--------------------------|--------------------------------|

|--------------------------------|--------------------------------|
|--------------------------------|--------------------------------|
|(2)------3-------2-------0---3--|(3)-----------------------------|
|--------------------------------|--------------------------------|

|--------------------------------|--------------------------------|
|*-------------------------------|--------------------------------|
|*(3)-----7-------5-------3---2--|(2)-----------------------------|
|--------------------------------|--------------------------------|

                 1. 2. 3.
|--------------------------------|--------------------------------|
|--------------------------------|-------------------------------*|
|(2)------3-------2-------0---3--|(3)----------------------------*|
|--------------------------------|--------------------------------|

Repeat Fig.1
Repeat Fig.1A

|--------------------------------|--------------------------------|
|--------------------------------|--------------------------------|
|--------------------------------|--------------------------------|
|-----------------5--------------|-3---------------2--------------|

|--------------------------------|--------------------------------|
|--------------------------------|--------------------------------|
|--------------------------------|--------------------------------|
|-0------------------------------|(0)-----------------------------|

|--------------------------------|--------------------------------|
|--------------------------------|--------------------------------|
|--------------------------------|--------------------------------|
|(0)-----------------------------|(0)-----------------------------|

|--------------------------------|--------------------------------|
|--------------------------------|--------------------------------|
|--------------------------------|--------------------------------|
|(0)-----------------------------|(0)----------------------0------|

|--------------------------------:
|--------------------------------:
|--------------------------------:
|-0------------------------------: End.

Sad But True
F:------------------------------------|-------------------------------------|
C:------------------------------------|-------------------------------------|
G:--0----------0--0--0--1----------1--|--0-----------0--0--0--1-------------|
D:------------------------------------|-------------------------------------|

F:-----------------------------------------|-------------------------|------|
C:---------------------------------8--5----|-------------------------|------|
G:--0----------0--0--0--1---------------8--|--0----------0--0--0--1--|-Rest-|
D:-----------------------------------------|-------------------------|------|
        Riff 1.          (x3) Bass Fill 1.
F:-----------|-------------------------------|-----------------------------|
C:-----------|*-----------------------------*|--------------------~~~~~~~--|
G:-Drum-Fill-|---------------5p0--1p0--------|--------------5-0-5-5--------|
D:-----------|*--0-----0--0------------3p0--*|--0-----0--0-----------------|

F:--------------|----------------------|-------------|---------------|
C:--------------|----------------------|-------------|---------------|
G:-Riff-1-(x3)--|---------------rest---|--Drum-Fill--|--Riff-1-(x2)--|
D:--------------|--0-----0--0----------|-------------|---------------|

  Bass Riff 2. (Verse)               (x4)
F:--------------------------------------------------------|
C:*------------------------------------------------------*|
G:------------5-------------------------------------------|
D:*-0--0--0-0----0--0--R--0-0--0--0--0--6--0--0--R--0-0--*|

  Bass Riff 3. (Chorus)
F:---------------------------------------------------------------------------|
C:*--------------------------------------------------------------------------|
G:------------5--------------------------5-----------------------------------|
D:*-0--0--1-1----1--0--0--0-0--0--0--1-1----1--5--5--5-5-5--5-5-5-4-3--5--3--|

                 (x2)
F:------------------------------------|-------------|--------------|
C:-----------------------------------*|-------------|--------------|
G:--------------3-3-3-3-------2-3-5---|-Riff-1-(x3)-|-Bass-Fill-1--|
D:3--3-3--3--3-----------0--X--------*|-------------|--------------|

                         *2nd Verse
F:---------|---------------------|-------------|---------------------|
C:---------|---------------------|-------------|---------------------|
G:-Riff-1--|---------------Rest--|--Drum-Fill--|--Bass-Riff-2.-(x4)--|
D:---------|--0-----0--0---------|-------------|---------------------|

  *2nd Chorus               Bass Fill 2.
F:---------------------|----------------|----------------------------|
C:---------------------|----------------|----------------------------|
G:--Bass-Riff-3.-(x2)--|--Riff-1.-(x2)--|------------------0h1p0-----|
D:---------------------|----------------|--0-----0--0--0-3-------3---|

                     (x4)
F:-------------------------------------------|--------------|
C:-------------------------------------------|--------------|
G:--0---------0-----0--1------------1--1--1--|--Rest,-Drums-|
D:---------------3---------------------------|--------------|

 Gtr. Solo 1
F:----------------|---------------------------|----------|---------|
C:----------------|---------------------------|----------|---------|
G:--Riff-1.-(x3)--|--------------5-0----------|--Riff-1--|-Fill-2--|
D:----------------|--0-----0--0------0-0-3-5--|----------|---------|

              (x4) *3rd Chorus   Gtr Solo 2
F:-----------------------------|---------------|----------|----------|
C:-----------------------------|---------------|----------|----------|
G:--0--0--1-1----1--0--0--0-0--|--Riff-3-(x2)--|--Riff-1--|--Fill-2--|
D:------------3----------------|---------------|----------|----------|

                              *3rd Verse
F:----------|---------|---------------------|-------------|---------------|
C:----------|---------|---------------------|-------------|---------------|
G:--Riff-1--|-Fill-2--|---------------Rest--|--Drum-Fill--|--Riff-2-(x4)--|
D:----------|---------|--0-----0--0---------|-------------|---------------|

  *4th Chorus             (x2)
F:---------------|--------------------------|--------------------------|
C:---------------|--------------------------|--------------------------|
G:--Riff-3-(x2)--|--------------------------|--------------------------|
D:---------------|--0--0--0--0--0--0--0--0--|--0--0--12---0--0--0--0--|

F:------------------------|--------------|-------------------------||
C:------------------------|--------------|-------------------------||
G:------------------------|--Gtr,-Drums--|------------Rest.--------||
D:--0--0--0--0--0---Rest--|--------------|--0----------------------||

       accent           accent

Ain't My Bitch
|-----------------------------------------------------------|
|-----------------------------------------------------------|
|-----------------------------------------------------------|
|-0-0-(0)-0-3---0-0----------------------0-0-(0)-0-0-3---0--|

 BASS FIG 1                     END FIG 1
|--------------------------|-%---|------------------------------|
|--------------------------|--%--|------------------------------|
|--------------------------|-%---|------------------------------|
|-0--0--0--0--0--0--0--0-0-|--%--|-0-0-0-0-0-0-0-(0)-0-3---5-3--|

|-----------------------------------------------------------------------
|-----------------------------------------------------------------------
|-----------0-2/5--7-7-7-7-7-7-7-7-7--7-7-7-7-7-7-7-7-7-7-7-7-7---7-----
|-(0)-0-3-------------------------------------------------------0---0-3-

------------------------------------------------------------------------
------------------------------------------------------------------------
----------------7---7---7---------7---7---7------7-7-7-7-7-7--7---------
-3--3--5-3--0-0---0---0---0-0-0-0---0---0---0--0-------------0--0-3-3-3-

---------|
---------|
---------|
-/7-5-3--|

 1,2,3 VERSES W/BASS FIG 1

|-----------------------------------------------------------------------
|-----------------------------------------------------------------------
|-----------------------------------------------------------------------
|-(0)-0-3---3-3-5-3-5-5-5-5-5-5-5-3-3-5-5-5-5-5-5-5-5-3-3-5-5-5-5-5-5-0-

------------------------------------------------------------------------
------------------------------------------------------------------------
----------------------------------------------------------7-------------
-5---5-3---3---0-------0------0--------0---0---------0---0-----7------

                   CHORUS & BASS FIG 2
-----------------------------------|------------------------------------
-----------------------------------|------------------------------------
-----------------------------------|------------------------------------
-0-0-0-0-0-0-0-0-0-0-0-0-0-0-0-0-7-|-7-7-7-7-7-0-0-5-5-5-5-5---5-0-0-3--
                      END FIG 2
------------------------------------------------|--%---|----------------
------------------------------------------------|---&--|----------------
------------------------------------------------|--^---|----------------
-3-3-3-3-3-2-1--0-0-0-0-3P0-0-0-0-0-3P0-0-0-3P0-|---$--|-7--7-7-7-7-7-7-

------------------------------------------------------------------------
------------------------------------------------------------------------
------------------------------------------------------------------------
-5-5-5-5-5-5-5-5-3-3-3-3-3-3-2-1-0----0-0-0-0-0-0-0-0-0-0-0-0-0-0-0-0-0-

------------------------------------------------------------------------
------------------------------------------------------------------------
----------------0-2/5--7-7-7-7-7-7-7-7-7-7-7---7---7---7---------7-7-7--
-0-0-(0)-0-3---------------------------------0---0---0---0-0-0-0--------

------------------------------------------------------------------------
------------------------------------------------------------------------
-----7------------------------------------------------------------------
-0-0---0-3-----(3)--/7-5-3-----------0-0-(0)-0-3-----(3)-0---0-0-0-0-0--

------------------------------------------------------------------------
------------------------------------------------------------------------
-------------------------------------7----------------------------------
-0-0-0-------------0-0-0-0-0-0-0-0-0-0--0-0-0-0-0-0-0-0-0-0-0-0-0-0-0-0-

------------------------------------------------------------------------
------------------------------------------------------------------------
--------------------7--------7-------7---------7-----7----7----7---7--7-
-0-0-0-3--3/5-3-0-0---0-0-0-0--0-0-0---0-0-0-0---0-0---0-0--0-0--0---0--

           GUITAR SOLO
-------------------|----------------------------------------------------
-------------------|-----4---------4-----------------------------4----4-
-----7-7-7-7-5-----|----------------------------------------------------
-0-0-----------7-5-|-2-2---2-2-2-2----2------2-2-5-5-5-5-7-0-2-2---2-2--

------------------------------------------------|
---4-------4-4-4-4---4--------------------------|
------------------------------------------------|
-2---2-2-2---------2---2--------2-2-5-5-5-5-7-0-|

|-----------------------------------------------------------------------
|-----6-----6------------------6----6-----------------------------6----6
|-----------------------------------------------------------------------
|-4-4---4-4---4-4-4--------4-4---4-4--4-4-4-4--4-4-4-7--7-9P7-4-4--4-4-

------------------------------------------------------------------------
------------------------------------------------------------------------
------------------------------------------------------------------------
-4-4-4-----------------7-7-7-7-0--(0)--(0)--(0)--(0)--(0)--(0)--(0)-(0)

------------------------------------------------------------------------
-------------------------------------------------4---------3--3---------
--------7-------7-7----------------5-5----------------------------------
-/12---0-----0-----3-------3-5/7-------7--2--2-2--2--1-1-1--1--1-0-0-0-

-----------|---&---|
-----------|--@----|
-----------|---#---|
-0-0-0-0-0-|--*----|

   CHORUS W/BASS FIG 2 (4X's)

  BASS FIG 3                     END FIG 3
|------------------------------------------------------------------|
|------------------------------------------------------------------|
|------------------------------------------------------------------|
|-7-7-7-7-7-7-0-0-5-5-5-5-5--5-0-0-3-3-3-3-3-3-2-1-0-0-0-0-0-0-0-0-|

 BASS FIG 3 (2 1/2X's)

|-----------------------------------------------------------------|
|-----------------------------------------------------------------|
|-----------------------------------------------------------------|
|-3-3-3-3-3-3-3-2-1-0-3-2-1-0-3-2-1-0-3-2-1--------0-0-(0)-0-3-0--|

Hero of the Day

Intro:

7 bars guitar only

:--------------------------------|--------------------------------:
:--------------------------------|--------------------------------:
:-----------------------------7--|-7---7---7---7---7---7---7---7--:
:--------------------------------|--------------------------------:


Verse 1:
|--------------------------------|--------------------------------|
|-7-------7--(7)/-9---9------(9)/|11--11-----(11)/12--12-(12)----|
|-----0-------0---0-------0---0--|-0-------0---0---0-------0---0--|
|--------------------------------|--------------------------------|

|--------------------------------|--------------------------------|
|--------------------------------|--------------------------------|
|--------------------------------|--------------------------------|
|-0---0---0---0---0---0---0---0--|-0---0---0---0---0---0---0---0--|

Fig.1
|--------------------------------|--------------------------------|
|-----7------(7)/-9---9------(9)/|11--11-----(11)/12--12-(12)----|
|-0-------0---0---0-------0---0--|-0-------0---0---0-------0---0--|
|--------------------------------|--------------------------------|

                             end Fig.1
|--------------------------------|--------------------------------|
|--------------------------------|--------------------------------|
|--------------------------------|--------------------------------|
|-0---0---0---0---0---0---0---0--|-0---0---0---0---0---0---0---0--|

Fig.2
|--------------------------------|--------------------------------|
|-----7------(7)/-9---9------(9)/|11--11-----(11)/12--12-(12)----|
|-0-------0---0---0-------0---0--|-0-------0---0---0-------0---0--|
|--------------------------------|--------------------------------|

                             end Fig.2
|--------------------------------|--------------------------------|
|--------------------------------|--------------------------------|
|--------------------------------|-------------------------0------|
|-0---0---0---0---0---0---0---0--|-0---0---0---0---0---2-------2--|

Repeat Fig.2 x 1

Fig.3
|--------------------------------|--------------------------------|
|--------------------------------|--------------------------------|
|-0---0---0---0---2---2---2---2--|-4---4---4---4---5---5---4---5--|
|--------------------------------|--------------------------------|

                             end Fig.3
|--------------------------------|--------------------------------|
|--------------------------------|--------------------------------|
|-5/7-----------------7-------5--|(5)--7-------------------0------|
|---------0---0---0-------0------|---------0---0---0---2-------2--|

Repeat Fig.3 x 1
Repeat Fig.1 x 2
End Verse 1


Verse 2:

Repeat Fig.1 x 2
Repeat Fig.3 x 4

End Verse 2


Chorus:
Fig.4                           end Fig.4
|--------------------------------|--------------------------------|
|--------------------------------|--------------------------------|
|->------->------->------->------|->------->------->------->------|
|-2-2-2-2-2-2-2-2-2-2-2-2-2-2-2-2|-2-2-2-2-2-2-2-2-2---0-2-3-3-0-2|

Fig.4A                          end Fig.4A
|--------------------------------|--------------------------------|
|--------------------------------|--------------------------------|
|->------->------->------->------|->------->------->------->------|
|-3-3-2-2-2-2-2-2-2-2-2-2-2-2-2-2|-2-2-2-2-2-2-2-2-2---0-2-3-3-0-2|

Repeat Fig.4A x 4

End Chorus

Guitar Solo:

Repeat Fig.3 x 2

End Guitar Solo


Verse 3:

Repeat Fig.3 x 2

End Verse 3


Chorus:

Repeat Fig.4
Repeat Fig.4A x 5

End Chorus


Outro:

Fig.5
|--------------------------------|--------------------------------|
|--------------------------------|--------------------------------|
|--------------------------------|--------------------------------|
|-2-2-2-2-2-2-2-2-2-2-2-2-2-2-2-2|-4-4-4-4-4-4-4-4-4-4-4-4-4-4-4-4|

                             end Fig.5
|--------------------------------|--------------------------------|
|--------------------------------|--------------------------------|
|--------------------------------|--------------------------------|
|-5-5-5-5-5-5-5-5-5-5-5-5-5-5-5-5|-7-7-7-7-7-7-7-7-7-7-7-7-7-7-7-7|

Repeat Fig.5 x 3

|--------------------------------|--------------------------------:
|--------------------------------|--------------------------------:
|--------------------------------|--------------------------------:
|-3---2-------2------------------|(2)-----------------------------: End

King Nothing

Intro
=====      Bass Fig.1                      (8x)
.|G|----10-----|-----------------------|------------------------|
4|D||=========||*----------------5-----|-------5--------8---7--*|
4|A|--guitar---|*---5-6-7----5/7----7--|---5/7----7-----------*|
.|E|-----------|--0-------0------------|-0-----------/6---5-----|

 Bass Fig.2                (4x)
G|-----------------------|----------------------|
D|*----------------------|--------------8---7--*|
A|*---5-6-7----7--------|---------------------*|
E|--0-------------0-3-0--|--0-0-3-0--/6---5-----|

 Bass Fig.3
G|--------------------|------------------|------------------|
D|*-------------------|------------------|------------------|
A|*-------------------|------------------|------------------|
E|--X-0-3-0--/6-6-5-X-|-1-0-3-0-/6-6-5-X-|-1-0-3-0-/6-6-5-X-|

   (end Bass Fig.3)
G|-------------------|------------------|------------------|
D|-------------------|------------------|------------------|
A|-------------------|------------------|------------------|
E|-1-0-3-0-/6-6-5-3--|-0-0-3-0-/6-6-5-X-|-1-0-3-0-/6-6-5-X-|

                    Bass Fig.4
G|------------------|------------------|-----------------------|
D|------------------|------------------|--------7-----7--------|
A|------------------|------------------|-0--0-0----0----0-0-0--|
E|-1-0-3-0-/6-6-5-X-|-1-0-3-0-/6-6-5-3-|-----------------------|

    (end Bass Fig.4)
G|----------------------|-----------------------|----------------|
D|-----7----------------|--------7-----7--------|----7-----------|
A|-(0)---7-6---5^6-5^6-|-0--0-0----0----0-0-0--|(0)---7-6----6/-|
E|----------------------|-----------------------|----------------|

 %
G|---------------------|--------------------------|---------------------------|
D|---------------------|--------------------------|---------------------------|
A|----7--7-7----7---7--|--------------------------|---------------------------|
E|-0----------0---0----|-8--8-8--8--8----8-8-8-8--|-7--7-7--7--7----7-7-7-75-|


G|----------------------|----------------------|-------------------------|
D|----------------------|----------------------|-------------------------|
A|---------------7-7----|------7--7-7----7---7-|-------------------------|
E|-5-5-3-2--1--0------5|-0--0---------0---0---|-3--3-3--3--3----3-3-5-3-|

                       Bass Fill 1
G|------------------------|------------------|-------------------|
D|------------------------|------------------|-------------------|
A|------------------------|------------------|-------------------|
E|--2--2-2-2--2---2-2-3-2-|-1-1-1-1--1-1-1-1-|-1---------------X-|
 ____________________________________________________ ____________
 w/Bass Fig.2(4x)                  |/2.
G|-----------------|-------------------|------6-------|---------------|
D|-------===-------|--------===--------||===========|*|-w/Bass Fill 1-|
A|-------===-------|--------===--------|-------------*|---------------|
E|-----------------|-------------------|--------------|---------------|
 __________________________________________________________
 w/Bass Fig.2(4x)
G|-----------------|-----------|-----------|----------------|
D|-------===-------|----===----|----===----|-------===------|
A|-------===-------|----===----|----===----|-------===------|
E|-----------------|-----------|-----------|----------------|
               HALF TIME FEEL
 ____________        w/Bass Fig.4
G|------------|------3------|-------------|------------------|
D|-----===----|-|=========|-|-----===-----|--------===-------|
A|-----===----|-------------|-----===-----|--------===-------|
E|------------|-------------|-------------|------------------|

        w/Bass Fill 2 (end 1/2 time feel) w/Bass Fig.3  w/Bass Fill 3
G|------------|----------------------X---------|--------4-------|--------r------|
D|----===-----|------7---------------X---------||==============||--------e------|
A|----===-----|----------7---6-------X---------|----------------|--------s------|
E|------------|-(0)------------------X---------|----------------|-0------t------|

 w/Bass Fig.1(4x)       w/Bass Fig.1(4x)
G|--------7--------|----------|-------------------|------------------|
D||===============||----==----|--------===--------|--------===-------|
A|-----------------|----==----|--------===--------|--------===-------|
E|-----------------|----------|-------------------|------------------|


G|-------------------|-----------------|------------|-----------------|
D|-------====--------|-------====------|----====----|-------===-------|
A|-------====--------|-------====------|----====----|-------===-------|
E|-------------------|-----------------|------------|-----------------|


G|-------------------|-----------------|------------|-----------------|
D|-------====--------|-------====------|----====----|-------===-------|
A|-------====--------|-------====------|----====----|-------===-------|
E|-------------------|-----------------|------------|-----------------|

 w/Bass Fig.2(4x)
G|------------------|-----------------|------------------|
D|-------===--------|-------===-------|--------===-------|
A|-------===--------|-------===-------|--------===-------|
E|------------------|-----------------|------------------|


G|------------------|-----------------|------------------|
D|-------===--------|-------===-------|--------===-------|
A|-------===--------|-------===-------|--------===-------|
E|------------------|-----------------|------------------|

                         D.S. Al Coda %
G|---------------------------|----------------------------------|
D|----------=====------------|---------------====---------------|
A|----------=====------------|---------------====---------------|
E|---------------------------|----------------------------------|
  |
 -0-To Coda
  |
G|---------------------|--------|-------|-------|----------------|
D|---------------------|--------|-------|-------|----------------|
A|---------------------|--------|-------|-------|----------------|
E|1------------------X-|-0------|(0)----|(0)----|(0)-----X-X-----|

 Outro
 w/Bass Fig.2(4x)
G|------------------|-----------------|-----------|-----------------|
D|------=====-------|------=====------|----===----|-------===-------|
A|------=====-------|------=====------|----===----|-------===-------|
E|------------------|-----------------|-----------|-----------------|


G|------------------|---------------|-----------|-----------------|
D|------=====-------|----=====------|----===----|-------====------|
A|------=====-------|----=====------|----===----|-------====------|
E|------------------|---------------|-----------|-----------------|


G|-------------|-----------------|-----------------|------------------||
D|-------------|-----------------|-----------------|------------------||
A|-------------|-----------------|-----------------|------------------||
E|-0-----------|(0)--------------|(0)--------------|(0)---------------||

One
|----------|------------|------|------------|-----------------||----4-------|
|----------|------------|------|------------|-----------------||------------|
|----------|------------|------|------------|---2---2---2---2-||-2----2-3-2-|
|----------|------------|------|------------|-----------------||------------|


|------------|----4---------|------------|
|------------|--------------|------------|
|------------|-2----2-2h3-2-|------------|
|-3----3-0-2-|--------------|-3----3-0-2-|


|----4---------|---------------|---------------|
|--------------|--------7-5----|---------------|
|-2----2-2h3-2-|-0----0-----7-|---------------|
|--------------|---------------|-3----3-0-2-3--|


|------------|------------||-------7-------|
|------------|------------||---7-----------|
|----------4-|----5-----7-||-5---5---/7----|
|-0----0-2---|-3----3-5---||------------8-|


|------------|------------|--------------|
|----5-------|----3---3---|-----2---2----|
|------------|------------|---2---2---2/-|
|-3----3-5-3-|-1----1---1-|-0------------|


|--------7-------|------------|------------|
|----7-----------|----4-------|----3---3---|
|-/5---5---/7----|------------|------------|
|-------------8-|-3----3-5-3-|-1----1---1-|


         1st, 2nd Verses

|-------------||-------4-----|-------------|
|-------------||o------------|-------------|
|--------2h3--||o-2------3-2-|-------------|
|-0----0------||-------------|-2----3-0-2--|


|---4--------|-------------|--------------|---------------|--------------|
|------------|-------------|--------------|--------7-5----|--------------|
|-2----2-3-2-|--------2h5--|-2----2-2h3-2-|-0----0-----7-|--------------|
|------------|-3--3-0------|--------------|---------------|-3----3-0-2-3-|


|-------------|------4-----|------------|--------------|--------------|
|-------------|------------|------------|--------------|--------------|
|---2-----2---|-2------3-2-|------------|-2----2-2h3-2-|--------0-2h5-|
|-0-----2-----|------------|-2----3-0-2-|--------------|-3----3-------|



|--------------|---------------|--------------|--------||---------------------|
|--------------|--------7-5----|--------------|--------||---------------------|
|-2----2-2h3-2-|-0----0-----7-|--------------|--------||--------2-------2----|
|--------------|---------------|-3----3-0-2-3-|-0--2-0-||-3----5---5-3-2------|


|-----------------------||--------------|
|-----------------5---6-||-----7--------|
|------2-4-2----3---4---||--5----5s7----|
|-5----------5----------||-----------8-|


|------------|------------|-------------|
|----5-------|----3---3---|-----2---2---|
|------------|------------|---2---2---2-|
|-3----3-5-3-|-1----1---1-|-0-----------|


|-------7-------|-------------|------------|--------------||-------7--------|
|---7-----------|-----5-------|----3---3---|-------------o||---7------------|
|-5---5---/7----|-------------|------------|--------2h3--o||-5---5---/7-----|
|------------8-|-3----3-5-3-|-1----1---1-|-0----0-------||------------8--|


|------------|------------|-------------|-------7-------|
|----5-------|----3---3---|-----2---2---|---7-----------|
|------------|------------|---2---2---2-|-5---5---/7----|
|-3----3-5-3-|-1----1---1-|-0-----------|------------8-|


|------------|------------|---------------|
|----5-------|----3---3---|-----2---2-----|
|------------|------------|---2---2---2---|
|-3----3-5-3-|-1----1---1-|-0-------------|


|---------------------|---------------------|---------------------|
|---------------------|---------------------|---------------------|
|--------2---------3--|------2-4-2----2--4--|--------2---------2--|
|-3----3---5-3--3-----|-3----------5--------|-3----3---5-3--2-----|


|---------------------|-----------------------||
|---------------------|-----------------------||
|------2-4-2----2--4--|--------2---------2----||
|-5----------5--------|-3----5---5-3--2-------||


|------------|-------------|------------|------------|-------------|
|------------|-------------|------------|------------|-------------|
|----5-----5-|-------5-----|-2--2---2---|-3--3---3---|-----5---5---|
|-5----5-5---|-3-3-3---3-0-|------0---0-|------1---0-|-5-5---5---5-|


|-------------|------------|---------------|-------------|-------------|
|-------------|------------|---------------|-----7-------|-------------|
|-------------|-2--2---2-0-|-3-3-3-3---3---|---5---5-----|-------5-----|
|-3-3-3-5-3-0-|------0-----|---------1---0-|-5-------5-0-|-3-3-3---3-0-|


|------------|-------------|-------------|-------------|-------------|
|------------|-------------|-----7-------|-------------|-------------|
|-2--2---2---|-3-3-3---3---|---5---5-----|-------------|-2--2---2-0--|
|------0---0-|-------1---0-|-5-------5-0-|-3-3-3-5-3-0-|------0------|


|--------------|-------------|-------------|------------|--------------|
|--------------|-------7-----|-------7-----|------------|--------------|
|-3-3-3-3---3/-|-7-7-7---7-0-|-5-5-5---5--|-2------2-0-|-3-3-3---3/---|
|---------1----|-------------|-------------|------0-----|-------1------|


|--------------|-------------|------------|---------------|----------|--------||
|--------7-----|-------7-----|------------|---------------|----------|--------||
|-/7-7-7---7-0-|-5-5-5---5--|-2--2-0-2-0-|-3-3-3-3---3---|-7--------|-(7)----||
|--------------|-------------|------------|---------1---0-|-0--------|-(0)----||


|---------------------------------|
|---------------------------------|
|-------------7---------------7---|
|-0-0-0-0-0-0-0---0-0-0-0-0-0-0---|


|---------------------------------|--------------------------------||
|---------------------------------|--------------------------------||
|-------------7---------------7---|-------------7--------------7---||
|-0-0-0-0-0-0-0---0-0-0-0-0-0-0---|-0-0-0-0-0-0-0--0-0-0-0-0-0-0---||


||----------------------------------||-|
||o--------------------------------o||-|
||o-------------7------------------o||-|
||--0-0-0-0-0-0-0--0-0-0-0-0-0-0-1--||-|


||----------------------------------|-----------------------------------|
||o---------------------------------|-----------------------------------|
||o-------------7---------------7---|-------------7---------------7-----|
||--0-0-0-0-0-0-0---0-0-0-0-0-0-0---|-0-0-0-0-0-0-0---0-0-0-0-0-0-0-----|


|---------------------------------|
|---------------------------------|
|-------------7---------------7---|
|-0-0-0-0-0-0-0---0-0-0-0-0-0-0---|


|---------------------------------|--------------------------------|
|---------------------------------|--------------------------------|
|-------------7-------------------|-------------7--------------7s8-|
|-0-0-0-0-0-0-0---0-0-0-0-0-0-0-1-|-0-0-0-0-0-0----0-0-0-0-0-0-----|


|--------------------------------|--------------------------------|
|--------------------------------|--------------------------------|
|-------------5--------------5s8-|-------------7--------------7s8-|
|-0-0-0-0-0-0----0-0-0-0-0-0-----|-0-0-0-0-0-0----0-0-0-0-0-0-----|


|---------------------------------||
|--------------------------------o||
|-------------5--------------2---o||
|-0-0-0-0-0-0----0-0-0-0-0-0---1--||


||-----------------------|-------------------|
||o----------------------|-------------------|
||o-------------2--------|-------2--------3--|
||--0-0-0-0-0-0----0-0-0-|-0-0-0----0-0-0----|


|----------------------|--------------------|
|----------------------|--------------------|
|-------------2--------|-------2--------3---|
|-0-0-0-0-0-0----0-0-0-|-0-0-0----0-0-0-----|


|----------------------|-------------------|
|----------------------|-------------------|
|-------------2--------|-------2--------3--|
|-0-0-0-0-0-0----0-0-0-|-0-0-0----0-0-0----|


|----------------------|---------------------|
|----------------------|---------------------|
|-------------2--------|-------2--------3----|
|-0-0-0-0-0-0----0-0-0-|-0-0-0----0-0-0------|


|-----------------------|-----------------------|------------------------||
|-----------------------|-----------------------|-----------------------o||
|-7-7-7-7-7-7-7---7-7-7-|-7-7-7-7-7-7-7---7-7-7-|-7-7-7-7-7-7-7---7-7-7-o||
|-0-0-0-0-0-0-0---0-0-0-|-0-0-0-0-0-0-0---0-0-0-|-0-0-0-0-0-0-0---0-0-0--||


  Guitar Solo lardey dar dey dar
  4x
||-----------------------|--------------------||-|
||o----------------------|-------------------o||-|
||o-------------2--------|-------2--------3--o||-|
||--0-0-0-0-0-0----0-0-0-|-0-0-0----0-0-0-----||-|


||------------------------|-----------------------||
||o-----------------------|----------------------o||
||o-7-7-7-7-7-7-7---7-7-7-|-7-7-7-7-7-7-7---7-7-7o||
||--0-0-0-0-0-0-0---0-0-0-|-0-0-0-0-0-0-0---0-0-0-||


||--------------------|-------------------|
||o-------------------|-------------------|
||o-------------7--7--|-------------7--7--|
||--0-0-0-0-0-0-0--0--|-0-0-0-0-0-0-0--0--|


|-------------------|--------------------||
|-------------------|-------------------o||
|-------------------|-------------------o||
|-0-0-0-0-0-0-0--1--|-3-3-3-3-3-3-3--3---||


||--------------------|-------------------|
||o-------------------|-------------------|
||o-------------5--5--|-------------5--5--|
||--3-3-3-3-3-3-------|-3-3-3-3-3-3-------|


|-------------------|--------------------||
|-------------------|-------------------o||
|-------------5--5--|-------------------o||
|-3-3-3-3-3-3-------|-1-1-1-1-1-1-1--1---||


||----------------|---------------|-------------------|-------------------||
||o---------------|---------------|-------------------|------------------o||
||o---------------|---------------|-------------------|------------------o||
||--0-0-3--0-0-3--|-0-0-3--0-0-3--|-1-1-1-1-1-1-1--1--|-1-1-1-1-1-1-1--1--||


|-----------------------|-------------------------|
|-----------------------|-------------------------|
|-----------------5-5-5-|-5-5-5-4-4-4-3-3-3-2-2-2-|
|-3-3-3-3-3-3-3---------|-------------------------|


  4x
||-----------------------|--------------------||
||o----------------------|-------------------o||
||o-------------2--------|-------2--------3--o||
||--0-0-0-0-0-0----0-0-0-|-0-0-0----0-0-0-----||


|-----------------------|-------------------------|
|-----------------------|-------------------------|
|-7-7-7-7-7-7-7---5-5-5-|-5-5-5-4-4-4-3-3-3-2-2-2-|
|-----------------------|-------------------------|


  4x
||-----------------------|--------------------||
||o----------------------|-------------------o||
||o-------------2--------|-------2--------3--o||
||--0-0-0-0-0-0----0-0-0-|-0-0-0----0-0-0-----||


|---------------|---------------|---------------|
|---------------|---------------|---------------|
|---------------|---------------|---------------|
|-0-0-3--0-0-3--|-0-0-3--0-0-3--|-0-0-3--0-0-3--|


||--------------------|-----------------||
||o-------------------|----------------o||
||o-------------7--7--|----------------o||
||--0-0-0-0-0-0-0--0--|-1-1-1--1-1-1----||


|---------------|---------------|----------------------|
|---------------|---------------|----------------------|
|---------------|---------------|-------------2--------|
|-3-3-3--3-3-3--|-3-3-3--3-3-3--|-0-0-0-0-0-0----0-0-0-|



|-------------------|--------------------------|--------------------*|
|-------------------|--------------------------|--------------------*|
|-------2--------3--|-7-7-7-7-7-7-7---19-19-19-|-19-19-19-19--------*|
|-0-0-0----0-0-0----|-0-0-0-0-0-0-0----0--0--0-|--0--0--0--0--------*|

Fuel
Time 4/4
beat 208

Gimme Fuel, Gimme Fire, gimme that wich I desire, ohoo. Eb:-0-

Fig.1
                           1.
Gb:-------------------------------------------------|-----------------:
Db:-------------------------------------------------|-----------------:
Ab:-------------------------------------------------|-----------------:
Eb:-3p0-0-3p0-0-3p0-3p0-0-3p0-0-3p0-3p0-0-3p0-0-3p0-|-3/5-5-5-5-3-3h5-:

						   2.
						  |-----------------:
						  |-----------------:
						  |-----------------:
						  |-3/5-5-5-5-3-0-3-:
                               end Fig.1

Fig.2:
:--------------------------------------------------------:
:--------------------------------------------------------:
:--------------------------------------------------------:
:-5-5--5-5-5--5-5-5--5-5-5--5-5-5--5-5-5--5-5-5--5-5-5-3-: end Fig.2


Riff.1:
:---------------------------------:
:---------------------------------:
:---------------------------------:
:-3p0-0-3p0-0-3p0-3p0-0-3p0-0-3p0-: end Riff.1
       Yeah...

1° and 3° Verses:
:--------------------------------|--------------------------------|
:--------------------------------|--------------------------------|
:--------------------------------|--------------------------------|
:-0------------------------------|-3--------------------------(3)/|

|--------------------------------|--------------------------------|
|--------------------------------|--------------------------------|
|---------------------7---5------|(5)-----------------------------|
|-0---------------0--------------|-------------6--5-------3------|

|--------------------------------|--------------------------------|
|--------------------------------|--------------------------------|
|--------------------------------|---------------------5----------|
|-0---------------------------3-/|-7---------------7-------7---7--|

|--------------------------------|--------------------------------|
|--------------------------------|--------------------------------|
|---------------------4----------|--------------------------------|
|-6---------------6-------6---6--|-5---5-------5---5---0---3---0--|

|--------------------------------|--------------------------------|
|--------------------------------|--------------------------------|
|--------------------------------|--------------------------------|
|-5---5-------5---5---5-------5--|-5---5-------5---5---5-------5--|

|--------------------------------|--------------------------------|
|--------------------------------|--------------------------------|
|--------------------------------|--------------------------------|
|-5---5-------5---5---5-------5--|-5-------5-------5---5---3---0--|

|--------------------------------|--------------------------------:
|--------------------------------|--------------------------------:
|--------------------------------|--------------------------------:
|-3-p-0---0---3-p-0---0---3-p-0--|-3-p-0---0---3-p-0---0---3-p-0--:

2° and 4° Verses:
:--------------------------------|--------------------------------|
:--------------------------------|--------------------------------|
:--------------------------------|--------------------------------|
:-0------------------------------|-3--------------------------(3)|

|--------------------------------|--------------------------------|
|--------------------------------|--------------------------------|
|--------------------------------|--------------------------------|
|-0-----------------------0---0--|-0---0-------0-------0---5-h-7--|

|--------------------------------|--------------------------------|
|--------------------------------|--------------------------------|
|--------------------------------|---------------------5----------|
|-0---------------------------3-/|-7---------------7-------7---7--|

|--------------------------------|--------------------------------|
|--------------------------------|--------------------------------|
|---------------------4----------|--------------------------------|
|-6---------------6-------6---6--|-5---5-------5---5---0---3---0--|

|--------------------------------|--------------------------------|
|--------------------------------|--------------------------------|
|--------------------------------|--------------------------------|
|-5---5-------5---5---5-------5--|-5---5-------5---5---5-------5--|

|--------------------------------|--------------------------------|
|--------------------------------|--------------------------------|
|--------------------------------|--------------------------------|
|-5---5-------5---5---5-------5--|-5---5-------5---5---5-------5--|

|--------------------------------|--------------------------------|
|--------------------------------|--------------------------------|
|--------------------------------|--------------------------------|
|-3-p-0---0---3-p-0---0---3-p-0--|-3-p-0---0---3-p-0---0---3-p-0--|

|--------------------------------|--------------------------------:
|--------------------------------|--------------------------------:
|--------------------------------|--------------------------------:
|-3-p-0---0---3-p-0---0---3-p-0--|-3---4---5---6---7---7---7---7--:


Chorus (Start Fig.3):
:--------------------------------|--------------------------------|
:--------------------------------|--------------------------------|
:--------------------------------|--------------------------------|
:-0---0---0---0---0---0---0---0--|-0---0---0---0---0---0---3---4--|

|--------------------------------|--------------------------------|
|--------------------------------|--------------------------------|
|--------------------------------|--------------------------------|
|-5---5---5---5---5---5---5---5--|-5---5---5---5---5---5---5---0--|

|--------------------------------|--------------------------------|
|--------------------------------|--------------------------------|
|--------------------------------|--------------------------------|
|-3---3---3---3---3---3---3---3--|-3---3---3---3---3---3---3---4--|

|--------------------------------|--------------------------------|
|--------------------------------|--------------------------------|
|--------------------------------|--------------------------------|
|-5---5---5---5---5---5---5---5--|-5---5---5---5---5---5---3---3--|

|--------------------------------|--------------------------------|
|--------------------------------|--------------------------------|
|--------------------------------|--------------------------------|
|-0---0---0---0---0---0---0---0--|-0---0---0---0---0---0---3---4--|

|--------------------------------|--------------------------------|
|--------------------------------|--------------------------------|
|--------------------------------|--------------------------------|
|-5---5---5---5---5---5---5---5--|-5---5---5---5---5---5---6---7--|

|--------------------------------|--------------------------------|
|--------------------------------|--------------------------------|
|--------------------------------|--------------------------------|
|-8---8---8---8---8---8---7---7--|-8---8---8---8---8---8---7---7--|

           (end Fig.3)
|--------------------------------|--------------------------------|
|--------------------------------|--------------------------------|
|-5---5---5---5---5---5---5---5--|-5---5---5---5---5---5---5---5--|
|--------------------------------|--------------------------------|

|--------------------------------|--------------------------------|
|--------------------------------|--------------------------------|
|--------------------------------|--------------------------------|
|-3-p-0---0---3-p-0---0---3-p-0--|-3-p-0---0---3-p-0---0---3-p-0--|
                              So gimme

|--------------------------------|--------------------------------:
|--------------------------------|--------------------------------:
|--------------------------------|--------------------------------:
|-0------------------------------|--------------------------------:
 fuel,   gimme  fire,  gimme that wich I desire.

Coda 1:
:--------------------------------|--------------------------------|
:--------------------------------|--------------------------------|
:--------------------------------|--------------------------------|
:-0------------------------------|--------------------------------|

 Repeat Fig.1
 Repeat Fig.2
 Repeat Riff.1   End Coda 1


Verse 3

Verse 4
Repeat Chorus until Coda 1 (excluded)

Substitute Coda 1 with:

Coda 2:
:--------------------------------|--------------------------------|
:--------------------------------|--------------------------------|
:--------------------------------|--------------------------------|
:--------------------------------|--------------------------------|
 Ooh,               Yeah.

|--------------------------------|--------------------------------|
|*-------------------------------|--------------------------------|
|*-------------------------------|--------------------------------|
|-0---0---0---3-----------0------|-0-------0-------0-------0------|

                              4 times
|--------------------------------|--------------------------------|
|--------------------------------|-------------------------------*|
|--------------------------------|----------------->-------------*|
|-0---0---0---3-----------0------|-0-------0-------3--------------|

|--------------------------------|--------------------------------|
|*-------------------------------|--------------------------------|
|*-------------------------------|--------------------------------|
|-5---5---5---3-----------0---0--|-3-------0---0---0-------0------|

                 1.2.3.
|--------------------------------|--------------------------------|
|--------------------------------|-------------------------------*|
|--------------------------------|-------------------------------*|
|-5---5---5---3-----------0---0--|-3-----------3---3-------0------|

                 4.
                 |--------------------------------|
                 |--------------------------------|
                 |--------------------------------|
                 |-3-----------------------0---0--|

|--------------------------------|--------------------------------|
|--------------------------------|--------------------------------|
|--------------------------------|--------------------------------|
|-5---5-------5---5---5-------5--|-5---5-------5---5---5-------5--|

                                (4)
|--------------------------------|--------------------------------|
|--------------------------------|-------------------------------*|
|--------------------------------|-------------------------------*|
|-5---5-------5---5---5-------5--|-5---5---5---5---5---5---3---3--|

|--------------------------------|--------------------------------|
|*-------------------------------|--------------------------------|
|*-------------------------------|--------------------------------|
|-3-p-0---0---3-p-0---0---3-p-0--|-3-p-0---0---3-p-0---0---3-p-0--|

|--------------------------------|--------------------------------|
|--------------------------------|-------------------------------*|
|--------------------------------|-------------------------------*|
|-3-p-0---0---3-p-0---0---3-p-0--|-3-/-5---5---5---5---3---3-h-5--|

|--------------------------------|--------------------------------|
|*-------------------------------|--------------------------------|
|*-------------------------------|--------------------------------|
|-0---0---0---3-----------3---3--|-0---0---0---3-----------3---3--|

                 1.
|--------------------------------|--------------------------------|
|--------------------------------|-------------------------------*|
|--------------------------------|-------------------------------*|
|-0---0---0---3-------3---3---3--|-3-/-5---5---5---5---3---3-h-5--|

                 2.
                 |--------------------------------|
                 |--------------------------------|
                 |--------------------------------|
                 |-3-----------2-----------1------|

|--------------------------------|--------------------------------|
|--------------------------------|--------------------------------|
|--------------------------------|--------------------------------|
|-3-p-0---0---3-p-0---0---3-p-0--|-3-p-0---0---3-p-0---0---3-p-0--|

|--

Other versions of Cunning Stunts Album

Cunning stuntsBass tabs

Almost there ...

Sign in to get your own page with links to favourite songs and more. You are just one click away...

Login with Facebook Login with Google