Bleeding Me Intro by Metallica

Bleeding Me Intro tab by Metallica

Guitar tabs

this is my first tab. I have just figured it out by my ear, but it hears right for me.





e----------------------------------------
b----------------------------------------
g----------------------------------------
d-------5----------------5-----------------
a---5/7---5/7---7------5---5/7-------------
e-0-----------0----0------------------------


e--------------------------------------
b--------------------------------------
g--------------------------------------
d-------5------------------------------
a---5/7---5---5------5-----------------------
e-0---------0----3/5---3~--------------------


e----------------------------------------
b------------------------------------
g--------------------------------------
d--------5---------------5---------------
a----5/7---5/7---7----5----5/7--------------
e--0-----------0---0--------------------------


e-------------------------------------
b-------------------------------------
g--------------------------------------
d--------5-------------------------------
a----5/7---5---5-----5-------------------------
e--0---------0---3/5---3~~----------------------

Other versions of Bleeding Me Intro

Alternative guitar chords and tabs for Bleeding Me Intro by Metallica

Find guitar tabs and chords

A B C D E F G H I J K L M N O P Q R S T U V W X Y Z #