Log in

One click and you are in

Login with Facebook Login with Google

Why sign up and log in

Guitar Tabs Explorer
Metallica bass tabs for Black album album

Bass tabs with lyrics

Metallica
Metallica

Enter sandman
Intro
g|----------|
d|--5-------|(x6) u let da guitar play dis twice before u com in
a|-7--------|
e|0--65-----|

g|------------------------------------------------------|
d|----------(x4)------------(x4)---------(x4)-----------|
a|-------/7--------/7-------------/7-----------/7-------|
e|0000000--------00--600001-----00--65001----00--650000-|

g|-|--------------------|-|
d|*|------(x3)----------|*| do dis twice
a|*|-/7-----------------|*|
e|-|0--650----30202/3\20|-|


Verse
g|--------------------------------------------------------------|
d|--------------------------------------------------------------|
a|--------------------------------------------------------------|
e|00000001000000100000030202/3\2000000001000000100000030202/3\20

Pre chorse
g|-2-----|
d|4---4--|(x3)
a|--32---|
e|-----2-|

Chorse
g|-------------------------------|
d|-------------------------------|
a|-432-432-432---432-------------|
e|2---2---2---0-2---0-30202/3\20-|

g|-|--------------------|-|
d|*|------(x3)----------|*| do dis twice
a|*|-/7-----------------|*|
e|-|0--650----30202/3\20|-|

Verse
g|--------------------------------------------------------------|
d|--------------------------------------------------------------|
a|--------------------------------------------------------------|
e|00000001000000100000030202/3\2000000001000000100000030202/3\20

Pre chorse
g|-2-----|
d|4---4--|(x3)
a|--32---|
e|-----2-|

Chorse
g|-------------------------------|
d|-------------------------------|
a|-432-432-432---432-------------|
e|2---2---2---0-2---0-30202/3\20-|

g|-|--------------------|-|
d|*|------(x3)----------|*| do dis 2 da end of da solo
a|*|-/7-----------------|*| then don't play when he goes
e|-|0--650----30202/3\20|-| 'know i lay...' then when it goes
'hush little baby...' do dis

g|------|
d|--5---| till da chorse and i can't be assed 2 tab it out, so just
a|-7----| figure it out its da same sort of ting as the chorse just a
e|0--65-| little different, and the outro is the intro backwards

g|-|--------------------|-|
d|*|------(x3)----------|*| do dis twice
a|*|-/7-----------------|*| just before u com in let da guitar play
e|-|0--650----30202/3\20|-| it twice


g|--------------------------------------|
d|----------(x4)---------(x4)-----------| repeat ito a fade
a|--/7------------/7-----------/7-------|
e|00--650001----00--60001----00--000000-|

sad but true

F:------------------------------------|-------------------------------------|
C:------------------------------------|-------------------------------------|
G:--0----------0--0--0--1----------1--|--0-----------0--0--0--1-------------|
D:------------------------------------|-------------------------------------|

F:-----------------------------------------|-------------------------|------|
C:---------------------------------8--5----|-------------------------|------|
G:--0----------0--0--0--1---------------8--|--0----------0--0--0--1--|-Rest-|
D:-----------------------------------------|-------------------------|------|
        Riff 1.          (x3) Bass Fill 1.
F:-----------|-------------------------------|-----------------------------|
C:-----------|*-----------------------------*|--------------------~~~~~~~--|
G:-Drum-Fill-|---------------5p0--1p0--------|--------------5-0-5-5--------|
D:-----------|*--0-----0--0------------3p0--*|--0-----0--0-----------------|

F:--------------|----------------------|-------------|---------------|
C:--------------|----------------------|-------------|---------------|
G:-Riff-1-(x3)--|---------------rest---|--Drum-Fill--|--Riff-1-(x2)--|
D:--------------|--0-----0--0----------|-------------|---------------|

  Bass Riff 2. (Verse)               (x4)
F:--------------------------------------------------------|
C:*------------------------------------------------------*|
G:------------5-------------------------------------------|
D:*-0--0--0-0----0--0--R--0-0--0--0--0--6--0--0--R--0-0--*|

  Bass Riff 3. (Chorus)
F:---------------------------------------------------------------------------|
C:*--------------------------------------------------------------------------|
G:------------5--------------------------5-----------------------------------|
D:*-0--0--1-1----1--0--0--0-0--0--0--1-1----1--5--5--5-5-5--5-5-5-4-3--5--3--|

                 (x2)
F:------------------------------------|-------------|--------------|
C:-----------------------------------*|-------------|--------------|
G:--------------3-3-3-3-------2-3-5---|-Riff-1-(x3)-|-Bass-Fill-1--|
D:3--3-3--3--3-----------0--X--------*|-------------|--------------|

                         *2nd Verse
F:---------|---------------------|-------------|---------------------|
C:---------|---------------------|-------------|---------------------|
G:-Riff-1--|---------------Rest--|--Drum-Fill--|--Bass-Riff-2.-(x4)--|
D:---------|--0-----0--0---------|-------------|---------------------|

  *2nd Chorus               Bass Fill 2.
F:---------------------|----------------|----------------------------|
C:---------------------|----------------|----------------------------|
G:--Bass-Riff-3.-(x2)--|--Riff-1.-(x2)--|------------------0h1p0-----|
D:---------------------|----------------|--0-----0--0--0-3-------3---|

                     (x4)
F:-------------------------------------------|--------------|
C:-------------------------------------------|--------------|
G:--0---------0-----0--1------------1--1--1--|--Rest,-Drums-|
D:---------------3---------------------------|--------------|

 Gtr. Solo 1
F:----------------|---------------------------|----------|---------|
C:----------------|---------------------------|----------|---------|
G:--Riff-1.-(x3)--|--------------5-0----------|--Riff-1--|-Fill-2--|
D:----------------|--0-----0--0------0-0-3-5--|----------|---------|

              (x4) *3rd Chorus   Gtr Solo 2
F:-----------------------------|---------------|----------|----------|
C:-----------------------------|---------------|----------|----------|
G:--0--0--1-1----1--0--0--0-0--|--Riff-3-(x2)--|--Riff-1--|--Fill-2--|
D:------------3----------------|---------------|----------|----------|

                              *3rd Verse
F:----------|---------|---------------------|-------------|---------------|
C:----------|---------|---------------------|-------------|---------------|
G:--Riff-1--|-Fill-2--|---------------Rest--|--Drum-Fill--|--Riff-2-(x4)--|
D:----------|---------|--0-----0--0---------|-------------|---------------|

  *4th Chorus             (x2)
F:---------------|--------------------------|----------------------------|
C:---------------|--------------------------|----------------------------|
G:--Riff-3-(x2)--|--------------------------|----------------------------|
D:---------------|--0--0--0--0--0--0--0--0--|--0--0--12---0--0--0--0-----|

F:------------------------|--------------|-------------------------||
C:------------------------|--------------|-------------------------||
G:------------------------|--Gtr,-Drums--|------------Rest.--------||
D:--0--0--0--0--0---Rest--|--------------|--0----------------------||

       accent           accent

holier than thou


 Play 1st bar 23 times (fun!)
G|-------------------------------|
D|-------------------------------|
A|--7--------------------------7-|
E|--0--0--0--0--0--0--0--0--0--0-|


G|---------------------------|---------------------------|---------------------------|
D|---------------------------|---------------------------|---------------------------|
A|--(7)--0--1-----0--1-------|-------0--1-----0--1-------|-------0--1-----0--1-------|
E|--(0)--------3--------3--0-|--(0)--------3--------3--0-|--(0)--------3--------3--0-|


G|-------------------------|-------------------------|-------------------------|-------------------------|
D|-------------------------|-------------------------|-------------------------|-------------------------|
A|-----0--1-----0--1-------|-----0--1-----0--1-------|-----0--1-----0--1-------|-----0--1-----0--1-------|
E|--0--------3--------3--0-|--0--------3--------3--0-|--0--------3--------3--0-|--0--------3--------3--0-|


G|-------------------------|---------------------------|------------|---------------------------||
D|-------------------------|---------------------------|------------|---------------------------||
A|-----0--1-----0--1-------|-------0--1-----0--1-------|------------|-------0--1-----0--1-------||
E|--0--------3--------3--0-|--(0)--------3--------3--0-|--(0)-------|--(0)--------3--------3--0-||


 Verses 1 and 2 (repeat this + chorus)
G|-------------------------|-------------------------|-------------------------|
D|-------------------------|-------------------------|-------------------------|
A|-------------------------|-------------------------|-------------------------|
E|--3--3--3--3--3--3--3--3-|--3--3--3--3--3--3--0--0-|--0--0--0--0--0--0--0--0-|


G|-------------------------|-------------------------|-------------------------|
D|-------------------------|-------------------------|-------------------------|
A|-------------------------|-------------------------|-------------------------|
E|--0--0--0--0--0--0--3--3-|--3--3--3--3--3--3--3--3-|--3--3--3--3--3--3--0--0-|


G|-------------------------|-------------------------|------------------------------|
D|-------------------------|-------------------------|------------------------------|
A|-------------------------|-----------------------1-|-(1)--1--1--1--0(h)1--0-------|
E|--0--0--0--0--0--0--0--0-|--0--0--0--0--0--0--0----|-------------------------3--0-|


G|---------------------------------|---------------------------------|------------------------|
D|---------------------------------|---------------------------------|------------------------|
A|-------------------------------7-|--(7)--------------------------7-|--(7)--0--1-----0--1----|
E|--(0)--0--0--0--0--0--0--0--0--0-|--(0)--0--0--0--0--0--0--0--0--0-|--(0)--------3--------3-|


G|-------------------------|-------------------------|-------------------------|
D|-------------------------|-------------------------|-------------------------|
A|-------------------------|-------------------------|-------------------------|
E|--3--3--3--3--3--3--3--3-|--3--3--3--3--3--3--0--0-|--0--0--0--0--0--0--0--0-|


G|-------------------------|-------------------------|-------------------------|
D|-------------------------|-------------------------|-------------------------|
A|-------------------------|-------------------------|-------------------------|
E|--0--0--0--0--0--0--3--3-|--3--3--3--3--3--3--3--3-|--3--3--3--3--3--3--0--0-|


G|-------------------------|-------------------------|------------------------------||
D|-------------------------|-------------------------|------------------------------||
A|-------------------------|-----------------------1-|-(1)--1--1--1--0(h)1--0-------||
E|--0--0--0--0--0--0--0--0-|--0--0--0--0--0--0--0----|-------------------------3--0-||


 Chorus
G|---------------------------|------------------------|-------------------------|
D|---------------------------|------------------------|-------------------------|
A|-------0--1-----0--1-------|-------0--1-----0--1----|-----0--1-----0--1-------|
E|--(0)--------3--------3--0-|--(0)--------3--------3-|--0--------3--------3--0-|


G|---------------------------|---------------------------|------------------------|
D|---------------------------|---------------------------|------------------------|
A|-------0--1-----0--1-------|-------0--1-----0--1-------|-------0--1-----0--1----|
E|--(0)--------3--------3--0-|--(0)--------3--------3--0-|--(0)--------3--------3-|


G|-------------------------|---------------------------|---------------------------------|
D|-------------------------|---------------------------|---------------------------------|
A|-----0--1-----0--1-------|-------0--1-----0--1-----7-|--(7)--------------------------7-|
E|--0--------3--------3--0-|--(0)--------3--------3--0-|--(0)--0--0--0--0--0--0--0--0--0-|


G|---------------------------------|---------------------------------|
D|---------------------------------|---------------------------------|
A|--(7)--------------------------7-|--(7)--------------------------7-|
E|--(0)--0--0--0--0--0--0--0--0--0-|--(0)--0--0--0--0--0--0--0--0--0-|


 1____________________________________________________________
G|------------------------|----------|------------------------|
D|------------------------|----------|------------------------|
A|--(7)--0--1-----0--1----|----------|-------0--1-----0--1----|
E|--(0)--------3--------0-|--(0)-----|--(0)--------3--------3-|


 2_____________________
G|--------------------------|-------------|--------------------||
D|--------------------------|-------------|--------------------||
A|--(7)----0--1-----0--1----|-------------|--------------------||
E|--(0)----------3--------0-|--(0)------3-|--(3)-------2--1--0-||

 Interlude
G|---------------------------|---------------------------|---------------------------|---------------------------|
D|---------------------------|---------------------------|---------------------------|---------------------------|
A|---------------------------|----------------1--0-------|---------------------------|----------------1--0-------|
E|--(0)--0--0--0--0--0--0--0-|--(0)--0--0--0--------3--0-|--(0)--0--0--0--0--0--0--0-|--(0)--0--0--0--------3--0-|


G|---------------------------|---------------------------|---------------|
D|---------------------------|---------------------------|---------------|
A|---------------------------|------------------1--0-----|---------------|
E|--(0)--0--0--0--0--0--0--0-|--(0)--0--0--0--------3--1-|--(1)--1--1--0-|


G|---------------------------|---------------------------|---------------|
D|---------------------------|---------------------------|---------------|
A|---------------------------|------------------1--0-----|---------------|
E|--(0)--0--0--0--0--0--0--0-|--(0)--0--0--0--------3--1-|--(1)--1--1--0-|


G|---------------------------|---------------------------|---------------------------|
D|---------------------------|---------------------------|---------------------------|
A|---------------------------|----------------1--0-------|---------------------------|
E|--(0)--0--0--0--0--0--0--0-|--(0)--0--0--0--------3--1-|--(1)--1--1--2-----2--2--3-|


G|---------------|---------------------------------|---------------------------------||
D|---------------|---------------------------------|---------------------------------||
A|---------------|---------------------------------|---------------------------------||
E|--(3)--3--3--4-|--(4)--4--4--4--4--4--4--4--4--4-|--(4)--4--4--4--4--4--4--4--4--0-||


 Guitar Solo
G|---------------------------------|---------------------------|----------------------------------|
D|---------------------------------|---------------------------|----------------------------------|
A|---------------------------------|---------------------------|----------------------------------|
E|--(0)--0--0--0--0--0--0--0--0--3-|--(3)--0--0--0--0--0--5--6-|--0--0--0--0--0--0--0--0--0--0--3-|


G|---------------------------|---------------------------------|---------------------------|
D|---------------------------|---------------------------------|---------------------------|
A|---------------------------|---------------------------------|---------------------------|
E|--(3)--0--0--0--0--0--5--6-|--(0)--0--0--0--0--0--0--0--0--3-|--(3)--0--0--0--0--0--5--6-|


G|---------------------------|---------------------------------|---------------------------|
D|---------------------------|---------------------------------|---------------------------|
A|---------------------------|---------------------------------|---------------------------|
E|--(3)--0--0--0--0--0--5--6-|--(0)--0--0--0--0--0--0--0--0--3-|--(3)--0--0--0--0--0--5--6-|


G|---------------------------|---------------------------------|------------------------|
D|---------------------------|---------------------------------|------------------------|
A|---------------------------|---------------------------------|-------0--1-----0--1----|
E|--(3)--0--0--0--0--0--5--6-|--(0)--0--0--0--0--0--0--0--0--3-|--(3)--------3--------3-|


G|-------------------------|-------------------------|------------------------|------------------------|
D|-------------------------|-------------------------|------------------------|------------------------|
A|-------------------------|-------------------------|------------------------|-------0--1-----0--1----|
E|--3--3--3--3--3--3--3--3-|--3--3--3--3--3--3--0--0-|--0--0--0--0--0--0--12-|--(0)--------3--------3--|


G|-------------------------|-------------------------|-------------------------------|---------------------------------|
D|-------------------------|-------------------------|-------------------------------|---------------------------------|
A|-------------------------|-----------------------1-|--(1)--1--1--1--0(h)1--0-----7-|--(7)--------------------------7-|
E|--3--3--3--3--3--3--3--3-|--3--3--3--3--3--3--3----|--------------------------3--0-|--(0)--0--0--0--0--0--0--0--0--0-|


G|---------------------------------|---------------------------------|------------------------|
D|---------------------------------|---------------------------------|------------------------|
A|--(7)--------------------------7-|--(7)--------------------------7-|--(7)-------------------|
E|--(0)--0--0--0--0--0--0--0--0--0-|--(0)--0--0--0--0--0--0--0--0--0-|--(0)--0--0--0--12---0--|

 Outro (Guitars tacet)
G|---------------------------|------------------------|-------------------------|
D|---------------------------|------------------------|-------------------------|
A|-------0--1-----0--1-------|-------0--1-----0--1----|-----0--1-----0--1-------|
E|--(0)--------3--------3--0-|--(0)--------3--------3-|--0--------3--------3--0-|


              (Guitars in)
G|------------------------|-------------------------|------------------------|
D|------------------------|-------------------------|------------------------|
A|-------0--1-----0--1----|-----0--1-----0--1-------|-------0--1-----0--1----|
E|--(0)--------3--------3-|--0--------3--------3--0-|--(0)--------3--------3-|


G|-------------------------|------------------------|-------------------------|
D|-------------------------|------------------------|-------------------------|
A|-----0--1-----0--1-------|-------0--1-----0--1----|-----0--1-----0--1-------|
E|--0--------3--------3--0-|--(0)--------3--------3-|--0--------3--------3--0-|


G|------------------------|-------------------------|---------------------------|
D|------------------------|-------------------------|---------------------------|
A|-------0--1-----0--1----|-----0--1-----0--1-------|-----0--1-----0--1---------|
E|--(0)--------3--------3-|--0--------3--------3--0-|--(0)--------3--------3--0-|


G|---------------------------|------------------------|-------------------------|
D|---------------------------|------------------------|-------------------------|
A|-----0--1-----0--1---------|-------0--1-----0--1----|-----0--1-----0--1-------|
E|--(0)--------3--------3--0-|--(0)--------3--------3-|--0--------3--------3--0-|


G|---------------------------|---------------------------------|---------------------------------|
D|---------------------------|---------------------------------|---------------------------------|
A|-----0--1-----0--1-------7-|--(7)--------------------------7-|--(7)--------------------------7-|
E|--(0)--------3--------3--0-|--(0)--0--0--0--0--0--0--0--0--0-|--(0)--0--0--0--0--0--0--0--0--0-|


G|---------------------------------|------------------------|-------------------|
D|---------------------------------|------------------------|-------------------|
A|--(7)--------------------------7-|--(7)--0--1-----0--1----|-------------------|
E|--(0)--0--0--0--0--0--0--0--0--0-|--(0)--------3--------0-|--(0)--0----0----0-|

G|------------------------|-------------------|----------------------||
D|------------------------|-------------------|----------------------||
A|-------0--1-----0--1----|-------------------|-------0--1-----------||
E|--(0)--------3--------3-|--(3)--3----3----3-|--(3)--------0--0-----||

The unforgiven


INTRO

|----------------------------------------|---------------------------|
|------------====guitar====--------------|---------------------------|
|----------------------------------------|--0---2-2-3------3------3--|
|----------------------------------------|---------------------------|

|--------------------------------------------------------------------|
|-----------------------------------------------------------3-----3--|
|-3-2---------2-----------0-0-2-----0-------0---2---3----------------|
|-----3-----------0--------------------------------------------------|

|--------------------------------------------------------------------|
|-3-1----------------------------------------------------------------|
|-----2-------2-----------2-----2---0--------------------------------|
|-----------------4---------4----------------------------------------|


VERSE

It's kinda hard to get the right timing with this, so I did this part like
every other person did it, with a Chord sheet. Easier for everyone.


|---|   |---|  |---|  |---|  |---|
|---|   |---|  |---|  |---|  |---|
|---|   |---|  |-5-|  |---|  |-3-|
|-5-| A  |-0-| E |---| D |-3-| G |---| C


A           E
New blood joins this earth

D        A
And quickly he's subdued

             E
Through constant pain disgrace

D           A
The young boy learns their rules

             E
With time the child draws in

D         A
This whipping boy done a wrong

           E
Deprived of all his thoughts

D          A
the young man struggles on and on

       C      G
He knows a vow unto his own

C        G
That never from this day

   C         G  E
His will they'll take away.CHORUS
|--------------------------------------------------------------------|
|--------------------------------------------------------------------|
|--------0---2---3-------3------3---3-2---------2-----------0-0-2----|
|---------------------------------------3-----------0----------------|


|--------------------------------------------------------------------|
|-------------------------3-----3---3-1------------------------------|
|-0-------0---2---3---------------------2-------2-----------2---0-2--|
|---------------------------------------------------4---------4------|

|--------------------------------------------------------------------|
|--------------------------------------------------------------------|
|-0-------0---2---3-------3-----3---3-2---------2-----------0-0-2----|
|---------------------------------------3-----------0----------------|


|--------------------------------------------------------------------|
|-------------------------3-----3---3-1------------------------------|
|-0-------0---2---3---------------------2-------2-----------2---0-2--|
|---------------------------------------------------4---------4------|

|---------------------------------|
|---------------------------------|
|-0-------------------------------|
|---------------------------------|

wherever I may roam


  intro (sitar)
G--------------|----------|
D--4:----------|----------|
A--4:----------|----------|
E--------------|----------|


G---------------------------|---------------|
D---------------------------|---------------|
A---------------------------|---7-----------|
E-----------------/12------|---0------------|


G------------|----------------------------|
D------------|----------------------------|
A------------|----------------------------|
E------------|-----(0)--------------------|


G----------------------------|-------------------|
D----------------------------|-------------------|
A----------7-----------------|-------------------|
E----------0-----------------|--------0----------|


G----------------|----------------|-----------------------|
D----------------|----------------|--2:-------------------|
A----------------|----------------|--4:-------------------|
E---0------------|----0-----------|------------(0)--------|


G---------------------|
D---------------------|
A---------------------|
E------5--6--7--8-----|


 bass figure 1
G-------------------------------|----------------------------|
D-------------------------------|----------------------------|
A-------7-----------------------|----------------------------|
E-------0-0--0--0--0--0--0--0---|--0--0--0--0--0--0--1--1----|


G-------------------------|--------------------------|
D-------------------------|--------------------------|
A-------------------------|--------------------------|
E-0--0--0--0--0--0--0--0--|--5--5--6--6--7--7--8--8--|


G--------------------------|--------------------------|
D--------------------------|--------------------------|
A--7-----------------------|--------------------------|
E--0--0--0--0--0--0--0--0--|--0--0--0--0--3--5--1--1--|

                     end bass fig 1
G--------------------------|--------------------------|
D--------------------------|--------------------------|
A--------------------------|--------------------------|
E--0--0--0--0--0--1--0--0--|--5--5--6--6--7--7--8--8--|


 riff 1
G-----------------------------|--------------------------|
D-----------------------------|--------------------------|
A--5--6--7--8- ---7-----------|--------------------------|
E--------------0--0--0--0--0--|--0--0--0--0--0--0--1--1--|


G------------------------|--------------------------|
D------------------------|--------------------------|
A------------------------|--------------------------|
E--0--0---0--0--0--0--0--|--5--5--6--6--7--7--8--8--|

 bass fill 1 ---|
G------------------|
D------------------|
A--------5---------|
E------------------|


riff 2  let ring           let ring
G---------------------------------|----------------------------|
D---------------------------------|----------------------------|
A-----------------7-----(7)------|--------------7-----(7)------|
E--------0---------------------0--|--0--0----------------------|


G-------------|------------------------|
D-------------|------------------------|
A-------------|------------------------|
E--1--1----0--|--1--0--1---1--1h3---1--|


 bass figure 2      let ring
G--------------------|-----------------------------|
D--------------------|-----------------------------|
A--------------------|----------------7----(7)-----|
E--0--0--0--0--0--0--|--0---0--0-------------------|

            end bass fig 2
G---------------------|--------------------|
D---------------------|--------------------|
A---------------------|--------------------|
E--1---1--1--1--1--1--|--1--0--1--1--8-----|


 1st, 2nd verses
G-----------------|-----------------|--------------------|
D-----------------|-----------------|--------------------|
A-----------------|--------------0--|--1--1--1--1--1--1--|
E--0--0--0--0--0--|--0--0--0--3-----|--------------------|


G-----------|-------------------------|-------------------|
D-----------|-------------------------|-------------------|
A--1--1--1--|--0---0---0---0----0--0--|--0--0---0---0--0--|
E-----------|-------------------------|-------------------|


G-----------------------|---------------------|
D-----------------------|---------------------|
A--1----1--1--1---1--1--|--1--1----1----------|
E-----------------------|--------------x---x--|


G----------------------|--------------------|
D----------------------|--------------------|
A----------------------|-----------------0--|
E--0----0----0--0---0--|--0---0---0---3-----|


G-----------------------|-------------------|---------------------|
D-----------------------|-------------------|---------------------|
A--1---1--1--1----1--1--|--1--1---1---1--1--|---------------------|
E-----------------------|-------------------|--3---3--3--3--3--3--|


G--------------------|-----------------------|
D--------------------|-----------------------|
A--------------------|--1--1--1--1--1--1--1--|
E--3---3---3---3--3--|-----------------------|


G--------------|-----------------|
D--------------|-----------------|
A--1--1--1--1--|--1---1---2---3--|
E--------------|-----------------|

 pm------------------------------------------------|
G------------------------|--------------------------|
D------------------------|--------------------------|
A--5--6--7--7--7--8--7--|---------------------------|
E------------------------|--0---0--0--3--5--1--1----|


G------------------------|--------------------------|
D------------------------|--------------------------|
A------------------------|--------------------------|
E--0---0--0--0--1--0--0--|--5--5--6--6--7--7--8--9--|


 bass fig 3
G--------------------------|--------------------------|
D--------------------------|--------------------------|
A--------------------------|--------------------------|
E--1--1--1--1--1--1--1--1--|--1--1--1--1--1--3--1--1--|


G--------------------------|--------------------------|
D--------------------------|--------------------------|
A--------------------------|--------------------------|
E--0--0--0--0--0--0--0--0--|--0--0--0--0--0--0--3--5--|

                    end bass fig 3
G--------------------------|--------------------------|
D--------------------------|--------------------------|
A--------------------------|--------------------------|
E--6--6--6--6--6--6--6--6--|--6--6--6--6--6--6--6--6--|


 bass fig 4           end bass fig 4
G--------------------|-------------------------|
D--------------------|-------------------------|
A--------------------|---------------3---------|
E--5--5--3--5--5--3--|--5--5--3---5-----5---0--|

 riff 3
G---------------------|-----------------------|
D---------------------|-----------------------|
A---------------------|-----------------------|
E--3--3--3--3---3--3--|--0--3--0--3--3--3--3--|


 interlude
G--------------------------|-----------------------------|
D--------------------------|-----------------------------|
A--------------------------|-----------------------3-----|
E--0--0--0--0--0--0--0--0--|--0--0--0--0--1--1--0-----1--|


G--------------------------|
D--------------------------|
A--------------------------|
E--0--0--0--0--0--0--0--0--|

         end inter.
G--------------------------|
D-----------------------1--|
A--------------------------|
E--0--0--0--0---2---3------|

 riff 4
G--------------------------|--------------------------|
D--------------------------|--------------------------|
A--------------------------|--------------------------|
E--0--0--0--0--0--0--0--0--|--0--0--0--0--0--1--3--1--|


G--------------------------|------------------------|
D--------------------------|---------------------1--|
A--------------------------|--7--7------------------|
E--0--0--0--0--0--0--0--0--|--0--0--0--0--2--3------|


 riff 5
G-----|---------------------|---------------------|
D-----|---------------------|---------------------|
A--5--|------------7--------|------------7-----0--|
E-----|--0---0--0-----0--0--|--0---0--0-----3-----|


G-----------------|--------------------|-------------------|
D-----------------|--------------------|-------------------|
A--1--1--1--1--0--|--1--0--1--1--1--1--|-------------------|
E-----------------|--------------------|--3---3---3--3--0--|


G------------------|----------------------|-------------------|
D------------------|----------------------|-------------------|
A---------------0--|--1--1--1--1---1---0--|--1--0--1--1--1p0--|
E--3---3-----3-----|----------------------|-------------------|

       pm---------------------|
G-----------------------------------|
D-----------------------------------|
A--1--1--2--5--6--7--7--7--8--7-----|
E-----------------------------------|


G--------------------------|--------------------------|
D--------------------------|--------------------------|
A--------------------------|--------------------------|
E--0-----0--0--3--5--1--1--|--0-----0--0--3--5--1--1--|


G--------------------------|--------------------------|
D--------------------------|--------------------------|
A--------------------------|--------------------------|
E--0--0--0--0--0--1--0--0--|--5--5--6--6--7--7--8--8--|


    bass fill 2
G-----|---------------|
D-----|---------------|
A--5--|---------------|
E-----|--3---3--0--3--|


G---|----------------|
D---|----------------|
A---|----------------|
E3--|--3----3--2--1--|

 pre-chorus
G--------------------------|----------------------------|
D--------------------------|----------------------------|
A--------------------------|----------------------------|
E--1--1--1--1--1--1--1--1--|--1----1--1--1--1--1--3--1--|


G--------------------------|-----------------------|
D--------------------------|-----------------------|
A--------------------------|---------------------0-|
E--0--0--0--0--0--0--0--0--|--0--0--0---0--1--3----|


G-------------------------|------|
D-------------------------|------|
A-1--1--1--1--1--1--3--1--|------|
E-------------------------|------|


chorus
G----------------------|------------------------|
D----------------------|------------------------|
A----------------------|---------------3--------|
E--5---5--3--5---5--3--|--5---5--3--5-----5--0--|


G----------------|--------------------------|----------------|
D----------------|--------------------------|----------------|
A----------------|--------------------------|--3---0--3---0--|
E--3---0--3---0--|--0--3--3--0--0--3--0--0--|----------------|


G---------------|--------------------------|--------------------|
D---------------|--------------------------|--------------------|
A--3--3---5--3--|--2--2--2--2--2--2--2--2--|-1--1---1-----------|
E---------------|--------------------------|-----------0--3--1--|


 outro
G--------------------------|--------------------------|
D--------------------------|--------------------------|
A--------------------------|--------------------------|
E--0--0--0--0--0--1--0--0--|--0--0--0--0--3--0--1--1--|


G--------------------------|--------------------------|
D--------------------------|--------------------------|
A--------------------------|--------------------------|
E--0--0--0--0--0--1--0--0--|--5--5--6--6--7--7--8--8--|


bass fig 5
G-----------------------|--------------------------|
D-----------------------|--------------------------|
A--5--6--7--7-----------|--------------------------|
E--------------0--1--0--|--0--0--0--0--3--5--1--1--|


G--------------------------|--------------------------|
D--------------------------|--------------------------|
A--------------------------|--------------------------|
E--0--0--0--0--0--1--0--0--|--5--5--6--6--7--7--8--8--|


Don't tread on me

104 bmp
(12/8)

||-------------------|-------|-------|-------------------|----------------|
||-------------------|---%---|---%---|-------------------|----------------|
||-------------------|-------|-------|-----------2--2----|-----------5--5-|
||-0-0-0-----0--0----|-------|-------|-0-0-0-------------|-3-3-3----------|

(6/8)     (12/8)
|----------|  |--------------------|-------------------|-------------------|
|----------|  |--------------------|-------------------|-------------------|
|-3-3-3----|  |-7------------------|-------------------|-------------------|
|----------|  |-----0-------0--0---|-0--0------0--0----|-0-0-0-----0--0----|

|-------------------|-------|-------|-------|-------------------------|
|-------------------|---%---|---%---|---%---|-------------------------|
|-------------------|-------|-------|-------|-------------------------|
|-0-0-0-----0--0----|-------|-------|-------|-0-0-0----1-0---1-1/3--1-|

Bass fig.1                     (end Bass fig.1)
|---------------------------------|--------------------------------|
|---------------------------------|--------------------------------|
|-------1/2--------------1/2------|-------1/2----------------------|
|-0-0-0-------1--0-----0--------1-|-0-0-0-------1--0----1--1/3---1-|


Play Bass fig.1 (3 times)


1st, 2nd verses
Bass fig.2
||-------------------|------------------|----------------------|
||o------------------|------------------|----------------------|
||o------------------|------------------|----------------------|
||--0-0-0-----0--0---|-0-0-0-----1--1---|-2-2-2--1-2-3--3--2-3-|

     (end Bass fig.2)
|-------------------------||
|------------------------o||
|--------------------5---o||
|-4-4-4--3-4-5---6/7---7--||

"Say don't tread on me...|
|--------------------------------------|-----------------------------------|
|--------------------------------------|-----------------------------------|
|--------------------------------------|-----------------------------------|
|-0--0-0-0--1--0--0--0--0-0-0--3--0--0-|-0--0-0-0--5--0--0--6-0-5-0-3-0----|

Bass fig.3
|------------------------|-------------------------|--------------------------|
|------------------------|-------------------------|--------------------------|
|------------------------|-------------------------|-5---5---5---5--5-5-5-----|
|-0--0-1-0-0-0---0-0-0-0-|-0---0-1-0-0-0--0-2-3---3|-------5---5----------5---|

      (end bass fig.3)
|-------------------------|------------------------|-------------------------|
|-------------------------|------------------------|-------------------------|
|-------------------------|------------------------|-------------------------|
|-3---3-0-3--3/4---5---6-|-0--0-1-0-0-0---0-0-0-0-|-0--0-1-0-0-0-0-2-3--3----|

|-------------------------|---------------------|-----------------------------|
|-------------------------|---------------------|-----------------------------|
|-5--5---5---5------5-5---|---------------------|-----------------------------|
|------5---5------5-----5-|-3---3-0-3-3-3--3--3-|-0-0-0-1-0-0-0-0-0-0-3-0-0---|
 ______________________
|
| 1. w/ Bass fig.1 (2 times)
|
 ______________________
|2.
|-----------------------------|-----------------|
|-----------------------------|-----------------|
|-------------------1---------|-----------------|
|-3--3-3-3--3--3--3-----3--1--|--------10-------|

Guitar solo

Play Bass fig.1 (4 times)

|----------------------|-----------------|------------------|
|----------------------|-----------------|------------------|
|----------------------|-----------------|------------------|
|-0-0-0--0-0-0---0-----|---------0-0-0---|-1---1------------|

|-------------------|----------------------||
|-------------------|----------------------||
|-------------------|------------------5---||
|-2-2-2-----3--3----|-4-4-4-----5--6/7---7-||

||--------------------------------------|-------------------------------------|
||--------------------------------------|-------------------------------------|
||--------------------------------------|-------------------------------------|
||-0--0-0-0--1--0--0--0--0-0-0--3--0--1-|-0--0-0-0--1-0--0--0--0-0-0--3-0-0---|

|-----------------------------------|----------------------------------------|
|-----------------------------------|----------------------------------------|
|-----------------------------------|----------------------------------------|
|-0--0-0-0--5--0--0--6-0--0--5-0--0-|-0--0-0-0--1--0--0--0--0-0-0--3--0--0---|

|--------------------------------------||
|--------------------------------------||
|--------------------------------------||
|-0--0-0-0--1--0--0--0--0-0-0--3--0--0-||


Play Bass fig.3 and repeat for outro

Through the never

188 bmp
(4/4)


Intro (guitar)
  (12)
||---------|----------||
||----r----|----------||
||---------|----------||
||---------|--------3-||

/--Bass fig.1-----------------------------------------------------|
||------------------|-----------------|---------|-----------------|
||o-----------------|-----------------|----%----|-----------------|
||o-----4-------3---|-----4-------3---|---------|-----4-----------|
||--0-2---2-0-2---2-|-0-2---2-0-2---2-|---------|-0-2---2-0-2-3---|

|-----------------|-----------------|-------|
|-----------------|-----------------|---%---|
|-----4-------3---|-----4-------3---|-------|
|-0-2---2-0-2---2-|-0-2---2-0-2---2-|-------|
 ______________
|1.
|-------------||
|------------o||
|------------o||
|-0-0-------3-||
 ______________
|2.
|--------|--------||
|--------|----r---||
|--------|--------||
|-0-0----|--------||


(Half time feel)
1st, 2nd verses
||-----------------|-----------------|----------------|-----------------|
||-----------------|-----------------|----------------|-------------0-2-|
||-----------------|-----------------|----------------|-0-1-0-----------|
||-0---0-0-0-0-0-0-|-0-0-0-0-0-0-0-0-|-0-5-----0-6----|-------3-1-0-----|

|-----------------|-----------------|-----------------|-----------------|
|-3-2-------------|-----------------|-----------------|-------------0-2-|
|-----------------|-----------------|-----------------|-0-1-0-----------|
|-----0-0-0-0-0-0-|-0-0-0-0-0-0-0-0-|-0-5------0-6----|-------3-1-0-----|

|-----------------|-----------------|-----------------|-----------------|
|-3-2-------------|-----------------|-----------------|-----------------|
|-----------------|---------7-5-----|-----------------|-----------5-7---|
|-----0-0-0-0-0-0-|-0-0-5-7-----7-5-|-0-0-0-0-0-0-0-0-|-0-0-0-5-7-----0-|

|-----------------|-----------------|-----------------|-----------------|
|-----------------|-----------------|-----------------|-----------------|
|-----------------|-----------5-7---|-----------------|-----------------|
|-0-0-0-0-0-0-0-0-|-0-0-0-5-7-----0-|-0-5------0-6----|-0-0-0-0-0-0-0-0-|

|-----------------|-----------------|-----------------|-----------------|
|-----------------|-----------------|--------%--------|-----------------|
|---------7-5-----|-----------------|-----------------|-----------------|
|-0-0-0-0-----7-5-|-3-3-3-3-3-3-3-3-|-----------------|-2-2-2-2-2-2-2-2-|

|-----------------|-----------------|-----------------|
|-----------------|-----------------|-------------0-2-|
|-----------------|-----------------|-0-1-0-----------|
|-2-2-2-2-2-2-2-2-|-0-5------0-6----|-------3-1-0-----|

Play Bass. fig.1 (4 times)


Chorus
 Bass fig.2               (end bass fig.2)---
||-----------------|-------|-------|-------|-----------------|--------------|
||-----------------|---%---|---%---|---%---|-----------------|--------------|
||-----------------|-------|-------|-------|-----------------|--------------|
||-0-2-2-2-0-2-2-2-|-------|-------|-------|-0-2-----0-2-----|-0-2-----0-2--|
  H    H

|----------||
|----------||
|----------||
|-----3----||

||------------------|-----------------|---------|
||o-----------------|-----------------|----%----|
||o-----4-------3---|-----4-------3---|---------|
||--0-2---2-0-2---2-|-0-2---2-0-2---2-|---------|
 _______________
|1.
|---------------||
|--------------o||
|-----4--------o||
|-0-2---2-0-2-3-||
 _______________
|2.
|------------|-----------------||
|------------|-------------0-2-||
|------------|-0-1-0-----------||
|-0-0--------|-------3-1-0-----||

|--------------|-2-3-2-0---------|--------------||
|--------------|---------3-2-0---|--------------||
|--------------|-----------------|--------------||
|-0-2-----0-2--|-----------------|-0-1--2--3--4-||


Guitar solo

||------------------|-------|-------|-----------------|
||o-0-2-2-2-0-2-2-2-|---%---|---%---|-0-2-2-2-0-2-3---|
||o-----------------|-------|-------|-----------------|
||------------------|-------|-------|-----------------|

|-----------------|-------|-------|
|-----------------|---%---|---%---|
|-0-2-2-2-0-2-2-2-|-------|-------|
|-----------------|-------|-------|
 ____________________
|1.
|------------------||
|-----------------o||
|-0-0---0---3---3-o||
|------------------||
 ___________________
|2.
|-----------------||
|-----------------||
|-----------3---3-||
|-0-0---0---------||

|-----------------|-------|-------|-----------------------||
|-----------------|---%---|---%---|-----------------------||
|-----------------|-------|-------|/12-12-12-12-12-12-3---||
|-3-5-5-5-3-5-5-5-|-------|-------|-----------------------||

|-----------------|-------|-------|-------|-------------|-------------||
|-----------------|---%---|---%---|---%---|-------------|-------------||
|-----------------|-------|-------|-------|-------------|-------------||
|-0-2-2-2-0-2-2-2-|-------|-------|-------|-0-2----0-2--|-0-2----0-2--||

|-------|-------|-------|----------|
|---r---|---r---|-19---|-(7)-------|
|-------|-------|-------|----------|
|-------|-------|-------|----------|

 Bass fig.3------------------------- (play 16-| times)
||------------------|--------------------------|
||o-----------------|----------------o---------|
||o-----------------|-1--------------o---------|
||--0---0-0-3---0-0-|-----3---3---3------------|

|----------|----------|----------|-----------||
|----------|----------|----------|-----------||
|----------|----------|----------|-----------||
|-0--------|-(0)------|-(0)------|-(0)-----3-||


Play bass fig.1 (4 times)

||-----------------|-------|--------------|-------|--------||
||-----------------|---%---|--------------|---%---|--------||
||-----------------|-------|--------------|-------|--------||
||-0-2-2-2-0-2-2-2-|-------|-0-2-----0-2--|-------|------3-||

||-----------------|-----------------|-------|-----------||
||-----------------|-----------------|---%---|-----------||
||-----4-------3---|-----4-------3---|-------|-----------||
||-0-2---2-0-2---2-|-0-2---2-0-2---2-|-------|-3-3-------||

nothing else matters

Bass enters at 1.04

Verse
G-------------------------------------------------------------------------|
D-------------------------------------------------------------------------|
A--5/7--5-3----------5/7--5-3---------5/7--5-3------2-----5/77------------|
E------------3-2-0------------3-2-0------------2-3-----0------3-2-0-------|


Verse Variation (Played At 2:29)
G-----------------------------------------------------------------------|
D-----------------------------------------------------------------------|
A--5/7--5-3----------5/7--5-/--10---------5/7--5-3------2---5/77--------|
E------------3-2-0----------------3-2-0-------------2-3---0-------3-2-0-|


Chorus
G--------------------------------------|
D--------------------------------------|
A--3-0--5~---3-0--5~---3-0--5--5/7-----|
E--------------------------------------|

Interlude (3:07)
G------------------5------9------------------------------------------9-----------------|
D--------9-------------------------------------------------------------9---------------|
A--7-77----7-77-----7-77----7--------------3--33-0-3-5--5-5-5h7-----------7------------|
E0----------------------------75--5-5---5------------------------0--------0---3-2-0----|

Interlude Second Time Round
G------------------5---------9---------------------------5------------7----------------|
D----------9---------------------------------7-----------------------------------------|
A----7-77----7-77-----7-77----7-------7-------------3-3----0-3-5---5-----5----7~-------|
E--0-----------------------------75------5----5---5----------------------------3-2-0---|
-
Play During Solo.Note: You Could Play Open E on the build up at (4:57)
G--------------------------------------------------------------------------|
D--------------------------------------------------------------------------|
A--5/7--5-3----------5/7--5-3---------5/7--5-3------2----------------------|
E------------3-2-0------------3-2-0-------------2-3-----0~-----------------|End

Of wolf and man

116 bpm (4/4) Intro:  (5)
  W|| E E E E E E E E || W| (W)| (W)| (W)| (W) |
g: R||          ||  |  |  |  |   |
D: R||X         X||X |  |  |  |   X|
A: R||X         X||X |  |  |  |   X|
E: R|| 0 R 0 R 0 R 0 R || 0| (0)| (0)| (0)| (0) |

1ST VERSE
  E S S Q. Q Q.| Q Q. Q Q.| Q Q. Q Q.| Q Q. Q Q.| E S S Q. Q Q.| Q Q. Q Q.|
G:       |     |     |     |       |     |
D:       |     |     |     |       |     |
A:       |     |     |     |       |     |
E: 0 0 0 0 R 0 | R 0 R 0 | R 0 R 0 | R 0 R 0 | 0 0 0 0 R 0 | R 0 R 0 |

  Q Q. Q Q.| E S S E E E S S E E| E S S E E E E E E| (E) E E E E E E E |
G:     |          |          |          |
D:     |          |X         |          X|
A:     |         2 1|X       2  1| (1)        X|
E: R 0 R 0 | 0 0 0 1 0 0 0 0  | 0 0 0 1 0 0  0 |   0 0 0 0 0 0 0 |

2ND AND 3RD VERSES            (4)           (2/4)
   E S S E E E E E E| (E) E E E E E E E | E E E E E E E E| E E E E|
G:|          |          |        |    |
D:|X         |          X|        |    |
A:|X       2  1| (1)        X|        |  2  1|
E:| 0 0 0 1 0 0  0 |   0 0 0 0 0 0 0 | 0 R 0 R 0 R 0 R| 0  0 |

(4/4) CHORUS
  (E) E E E E E E E| E E E E E E E E| (E) E E E E E E E| E E E E E E E E|
G:         |        |         |        |
D:         |        |         |        |
A: (1) 1 1 1 1 1 1 1|      2  1| (1) 1 1 1 1 1 1 1|      4  3|
E:         | 0 0 1 0 0  0 |         | 0 0 1 0 0  0 |

  (E) E E E E E E E| E E E E E E E E| (E) E E E E E E E| E S S E E E S S E E|
G:         |        |         |          |
D:         |        |         |          |
A: (3) 3 3 3 3 3 3 |      4  3| (3) 3 3 3 3 3 3 |          |
E:         0| 2 2 3 2 0  0 |         0| 2 2 2 3 2 2 2 2 3 2|


1-------------------------------------------------------
  E E E E E E Q | E S S E E E E E E| (E) E E E E E E E| E S S E E E E E E|
G:        |         |         |         |
D:        |         |         |         |
A:        |       2  1| (1)       |       2  1|
E: 2 r 2 r 2 r 12| 0 0 0 1 0 0  0 |   0 0 0 0 0 0 0| 0 0 0 1 0 0  0 |

(1)----------------------      2-----------       (3)
  E E S  S  S S E  E E  E  | E S S Q. Q E| (E) Q. Q Q | W| (W)|
G:                 |       |       | |  |
D:    /-     /-  /-  X|       |X      X| |  |
A: (1)  5 H 7 P 5  5 H 7 5 H 7 X|     R 7|X (7)   7 X| |  |
E:   0   -/ 7        | 0 0 0 0 R |   0 R  | 0| (0)|

GUITAR SOLO
   E S S E E E S S E S S| E S S E E E S S E S S| E S S E E E S S E S S|
G:|            |           |           |
D:|X           |           |           |
A:|X           |           |           |
E:| 0 0 0 1 0 0 0 0 0 0 0| 0 0 0 1 0 0 0 0 0 0 0| 0 0 0 1 0 0 0 0 0 0 0|

  E E Q. E E E| E E E E E E E E| (E) E E E E E E E| E E E E E E E E|
G:       |        |         |        |
D:       |        |         |        |
A:       |      2  1| (1) 1 1 1 1 1 1 1| 1 1 1 1 1 4 1 3|
E: 3 R 3 1 R 1| 0 0 1 0 0  0 |         |        |


  (E) E E E E E Q | E E E E E E E| E S S E E E E E E| (E) E S  S S S E  E E  E|
G:         |       |         |               |
D:         | *  *  *  *|         |    /-     /-  /- |
A: (3) 3 3 3 3 3 3| 3 R 4 R 5 R 6|       2  1| (1)  5 H 7 P 5  5 H 7 5 H 7|
E:         |       | 0 0 0 1 0 0  0 |   0   -/ 7      |

  E S S E E E E E E| (E) E S  S S S E  E E  E| (H) E E S S E| (W)|
G:         |               |       |  |
D:         |    /-     /-  /- |       |  |
A:       2  1| (1)  5 H 7 P 5  5 H 7 5 H 7| (7)     |  |
E: 0 0 0 1 0 0  0 |   0   -/ 7      |   3 0 3 3 2| (2)|

INTERLUDE (7) I FEEL ...
    (4)
  W|| (W) | E S S Q. Q Q.| Q Q. Q Q.| Q Q. Q Q.| Q Q. Q Q.| E S S E E S S E E |
G: ||    |       |     |     |     |           |
D: ||X   X|       |     |     |     |X          X|
A: ||X   X|       |     |     |     |X        4 3 X|
E: 0|| (0) | 0 0 0 0 R 0 | R 0 R 0 | R 0 R 0 | R 0 R 0 | 2 2 2 3 2 2 2   |

                 END OF 3RD CHORUS
  E E E E E E E| E E E E E E E | E S S E E E S S E E|
G:       |        |          |
D: *  *  *  *| *  *  *  * |          |
A: 3 R 4 R 5 R 6| 4 R 5 R 6 R 7|          |
E:       |        | 2 2 2 3 2 2 2 2 3 2|


The god that failed

Tune down 1/2 step
 Intro

Gb|-------------------------------|-------------------------------|
Db|-------------------------------|-------------------------------|
Ab|-------------------------------|-------------------------------|
Eb|--3--3--0--0--0--7--7--0--0--0-|--3--3--0--7--0--3--3--0--5--0-|


Gb|-------------------------------|-------------------------------|
Db|-------------------------------|-------------------------------|
Ab|-----------------5--5--7-------|-------------------------------|
Eb|--3--3--0--0--0-----------0--0-|--3--3--0--7--0--3--3--0--5--0-|


Gb|-------------------------------|-------------------------------|
Db|-------------------------------|-------------------------------|
Ab|-------------------------------|-------------------------------|
Eb|--3--3--0--0--0--7--7--0--0--0-|--3--3--0--7--0--3--3--0--5--0-|


Gb|-------------------------------|-------------------------------|
Db|-------------------------------|-------------------------------|
Ab|-----------------5--5--7-------|-------------------------------|
Eb|--3--3--0--0--0-----------0--0-|--3--3--0--7--0--3--3--0--5--0-|


Gb|-------------------------------|-------------------------------|
Db|-------------------------------|-------------------------------|
Ab|-------------------------------|-------------------------------|
Eb|--3--3--0--0--0--7--7--0--0--0-|--3--3--0--7--0--3--3--0--5--0-|


Gb|-------------------------------|---------------------------------|
Db|-------------------------------|---------------------------------|
Ab|-----------------5--5--7-------|---------------------------------|
Eb|--3--3--0--0--0-----------0--0-|--3--3--0--7--0--0--(rest)--5--3-|


Gb|-------------------------------|-------------------------------|
Db|-------------------------------|-------------------------------|
Ab|-------------------------------|-------------------------------|
Eb|--2--0--0--0--0--1--0--0--0--0-|--1--0--0--3--0--1--0--0--0--0-|


Gb|-------------------------------||
Db|-------------------------------||
Ab|-------------------------------||
Eb|--1--0--0--3--0--1--0--0--0--0-||


 1st, 2nd verses (this whole part + the chorus is repeated)
Gb|-------------------------------|-------------------------------|
Db|-------------------------------|-------------------------------|
Ab|-------------------------------|-------------------------------|
Eb|--1--0--0--0--0--1--0--0--0--0-|--1--0--0--3--0--1--0--0--0--0-|


Gb|-------------------------------|-------------------------------|
Db|-------------------------------|-------------------------------|
Ab|-------------------------------|-------------------------------|
Eb|--1--0--0--0--0--1--0--0--0--0-|--1--0--0--3--0--0--1--1--1--1-|


Gb|-------------------------------|---------------------------------|
Db|-------------------------------|---------------------------------|
Ab|-------------------------------|---------------------------------|
Eb|--1--0--1--1--1--1--0--1--1--1-|--1--0--1/3--0--3--0--1--1--1--1-|


Gb|-------------------------------|------------------------------------------|
Db|-------------------------------|------------------------------------------|
Ab|-------------------------------|------------------------------------------|
Eb|--1--0--1--1--1--1--0--1--1--1-|--1--0--1/3--0--3--3--0--0--0--0--0--0--0-|


Gb|--------------------------------|-------------------------------||
Db|--------------------------------|-------------------------------||
Ab|--------------------------------|-------------------------------||
Eb|--3--3--0--0--0---7--7--0--0--0-|--3--3--0--7--0--3--3--0--5--0-||


 Chorus
Gb|-------------------------------------|----------------------|
Db|-------------------------------------|----------------------|
Ab|-------------------------------------|----------------------|
Eb|--3--0--0--0--0--0--0--0--0--0--0--0-|--0--0--0--3--3--3--3-|


Gb|-------------------------------------|----------------------|
Db|-------------------------------------|----------------------|
Ab|-------------------------------------|----------------------|
Eb|--7--7--7--7--7--7--7--7--7--7--7--7-|--7--7--7--5--5--5--5-|


Gb|-------------------------------------|----------------------|
Db|-------------------------------------|----------------------|
Ab|-------------------------------------|----------------------|
Eb|--3--0--0--0--0--0--0--0--0--0--0--0-|--0--0--0--3--3--3--3-|


Gb|------------------------------------------------|--------------------------------------------|
Db|------------------------------------------------|--------------------------------------------|
Ab|------------------------------------------------|--------------------------------------------|
Eb|-7--7--7--7--7--7--7--7--7--7--7--7--7--7--7--7-|--7--7--7--7--7--7--7--7--7--7--7--7--5--7--|

 1.______________________________________________________________________________
Gb|--------------|-------------------------------|-------------------------------|
Db|--------------|-------------------------------|-------------------------------|
Ab|--------------|-------------------------------|-------------------------------|
Eb|--3-----------|--3--3--0--0--0--7--7--0--0--0-|--3--3--0--7--0--3--3--0--5--0-|

_____________________________________________________________
Gb|-------------------------------|-------------------------|
Db|-------------------------------|-------------------------|
Ab|-----------------5--5--7-------|-------------------------|
Eb|--3--3--0--0--0-----------0--0-|--3--3--0--7--0--0--5--3-|


 2._____________
Gb|-------------|-------------------------------------|--------------------------------------|
Db|-------------|-------------------------------------|--------------------------------------|
Ab|-------------|-------------------------------------|--------------------------------------|
Eb|--3----------|--0--0--0--0--0--0--0--0--0--0--0--5-|--7--7--7--7--7--7--7--78/7--7--7--5--|


 Guitar Solo
Gb|-------------------------------|-------------------------------|
Db|-------------------------------|-------------------------------|
Ab|-------------------------------|-------------------------------|
Eb|--3--3--0--0--0--7--7--0--0--0-|--3--3--0--7--0--3--3--0--5--0-|


Gb|----------------------------------------------|-----------------------------------------------|
Db|--------------------------------------------5-|-----------------------------------------------|
Ab|--------------------------------5--5--7--7----|-----------------------------------------------|
Eb|--3--3--0--0--3--3--5--5--7--7----------------|--7--7--0--7--7--7--7/87--5--3--2--3--3--2--0--|


Gb|-----------------------------|------------------------------------|
Db|-----------------------------|------------------------------------|
Ab|-----------------------------|------------------------------------|
Eb|--3--0--0--12--7--7--0--12-|--3--3--0--7--0--3--3--0--5--0--0-----|


Gb|-------------------------------------|--------------------------------|
Db|-------------------------------------|--------------------------------|
Ab|-------------------------------------|--------------------------------|
Eb|--3--3--3--5--7--5--3--3--3--5--7--5-|--7--7--8--10--8--7--7--7--7--5-|


Gb|-----------------------------|---------------------------------|
Db|-----------------------------|---------------------------------|
Ab|-----------------------------|---------------------------------|
Eb|--3--3--0--12--7--0--0--12-|--3--0--0--7--0--3--3--0--5--0-----|


Gb|----------------------------------|-------------------------------|
Db|----------------------------------|-------------------------------|
Ab|----------------------------------|-------------------------------|
Eb|--3--3--3--0--3--3--0--3--3--0--3-|--7--7--7--7/87--7--7--7--7----|


  (hammer on-pull off)
Gb|----------------------------------------------------------|--------------------------------|
Db|--4(h)5(p)4--------------------4(h)5(p)4------------------|--------------------------------|
Ab|-------------7--5--42--------------------7--5--42-------|----------------------------------|
Eb|------------------------5--3-------------------------5--3-|--2--0--0--0--0--1--0--0--0--0--|


Gb|------------------------------------|---------------------------------|
Db|------------------------------------|---------------------------------|
Ab|------------------------------------|---------------------------------|
Eb|--1--0--0--3--0--1--0--0--0--0--12-|--1--0--0--0--0--1--0--0--0--0----|


Gb|-------------------|------------------------------||
Db|-------------------|------------------------------||
Ab|-------------------|------------------------------||
Eb|--1--0--0--3--0--0-|--(0)--3--0--0--0--3--0--0--0-||

My friend of misery

Bass Riff1
|-----10---------10---------10--14---------12---------10------|
|---------12---------12-------------12---------12---------12--|
|--0----------0----------0--------------0----------0----------|
|-------------------------------------------------------------|

|-----9---------9---------9--12---------10---------9------|
|--------10--------10------------10---------10--------10--|
|--0---------0---------0-------------0----------0---------|
|---------------------------------------------------------|

Bass Riff2
|-----10---------10---------10--14---------12---------10------|
|---------12---------12-------------12---------12---------12--|
|--0----------0----------0--------------0----------0----------|
|-------------------------------------------------------------|

|-----9---------9---------9--12---------10---------9-------|
|--------10--------10------------10---------10-------------|
|--0---------0---------0-------------0----------0----------|
|----------------------------------------------------------|

Bass Riff3
|-------------------------------------------------------------------|
|-------------------------------------------------------------------|
|------------------------------3------------------------------------|
|--5-5-5-5-5-5-5-5-5-5-5-5-5-5---3-5-5-5-5-5-5-5-5-5-5-5-5-5-5-3-5--|

Bass Riff4
|-----------------|
|-----------------|
|-----------------|
|---5-------5--5--|

Bass Riff5
|--------------------------------------------------------------------|
|--------------------------------------------------------------------|
|------0-2-3-4-------0-0---0-2--2-0-----0-2-3-4-------0-0-1-2--------|
|--2-2---------0-0-0----------------2-2---------0-0-0---------0-0-0--|

Bass Riff6
|-----------------------------------|
|-----------------------------------|
|--------------------------------0--|
|--0-0-0-0-0-0-0-0-0-0-0-0-0-0-0----|

Bass Riff7
|--------------------------------------------------------------------------|
|--------------------------------------------------------------------------|
|--------------------------------------------------------------------------|
|--2-2-----0-1--2-2-----0-3--2-2-----0-1--2-2-----0-3--2-2---2-2-0-1--2-2--|

Bass Riff7 (cont.)
|--------------------------------------------------|
|--------------------------------------------------|
|--------------------------------------------9-----|
|--2-2-2-0-3-3-2-2-2-2-2-2-0-1-2-2-2-2-2-2-0-------|

Bass Riff8
|---------------------------------------------------------------|
|---------------------------------------------------------------|
|----------------------------------------0-2-3-4-----0-0-1-2----|
|--2-2-2-2-2-2-2-2-2-2-2-2-2-2-2-2-2-2-2---------0-----------0--|

How it's played:
Bass Riff1 x 7
Bass Riff2 x 1
Bass Riff3 x 4
Bass Riff4 x 1
Bass Riff5 x 2
Bass Riff6 x 1
Bass Riff1 x 2
Bass Riff3 x 4
Bass Riff4 x 1
Bass Riff5 x 2
Bass Riff6 x 1
Bass Riff1 x 8
Bass Riff3 x 4
Bass Riff4 x 1
Bass Riff5 x 4
Bass Riff6 x 1
Bass Riff5 x 4
Bass Riff7 x 1
Bass Riff5 x 1
Bass Riff8 x 1

The stuggle within

144 bpm
(4/4)

  (drums)
    4                  (play 3 times)
|-------------||---------|---------|---------|-----------||
|-------------||o--------|---------|---------|----------o||
|-------------||o-7------|-(7)-----|-(7)-----|-5--------o||
|-------------||--0------|-(0)-----|-(0)-----|-------7---||

||-----------------|------------------|-------|
||-----------------|------------------|---r---|
||-----------------|-----------7------|-------|
||-0--0--0-0-0-0-0-|-0--0----0-0------|-------|

 (2/4)
||-----|-----|-----|-----|-----||
||--r--|--r--|--r

Almost there ...

Sign in to get your own page with links to favourite songs and more. You are just one click away...

Login with Facebook Login with Google