Log in

One click and you are in

Login with Facebook Login with Google

Why sign up and log in

Guitar Tabs Explorer
Metallica tabs for Better then you

Guitar tabs

Tabbed: Adam Atkinson
Metallica: Better Then You

pretty simple for a tallic song.
tune guitars down 1/2 step

Db------------------------
Ab--2-5/7-5--2--2-5/7-5--2
Eb--0-3/5-3--0--0-3/5-3--0
Db--------------------------------------------------------
Ab--2-5/7-5------2-----2-----2--2-5/7-5------2-----2-----2
Eb--0-3/5-3--0-0-0-0-0-0-0-0-0--0-3/5-3--0-0-0-0-0-0-0-0-0
            pm..   ...   ...             pm...   ...   ...

Gb--------------------------------------------
Db--------------------------------------------
Ab--2-5/7-5-5-5-7-7-7-5-5-5------2-----2-----2  2 times
Eb--0-3/5-3-3-3-5-5-5-3-3-3--0-0-0-0-0-0-0-0-0
 "I look at you..."          pm..   ...   ...


Gb-------------------------------------------------------
Db--------------------5-5-5-7-7-7---------10-10-10-12
Ab--2-5/7-5-5-5-7-7-7-3-3-3-5-5-5-5-5-5-7-7-7-8--8--8--10
Eb--0-3/5-3-3-3-5-5-5-------------3-3-3-5-5-5------------
"Holding the lion's share....."


Gb---------------4p2-------------    --------------6p4-------------
Db--4-4-4-4-4-4------4--4p2---2-3 tw -4/6-4/6-4/6------4--6p4---4-5
Ab--4-4-4-4-4-4-------------2-2-3 ic -4/6-4/6-4/6-------------4-4-5
Eb--0h2-0h2-0h2---------------0-1 e  -2/4-2/4-2/4---------------2-3

Chorus
"Oh, cannot stop this train from rolling....."

Almost there ...

Sign in to get your own page with links to favourite songs and more. You are just one click away...

Login with Facebook Login with Google