Log in

One click and you are in

Login with Facebook Login with Google

Why sign up and log in

Guitar Tabs Explorer
Metallica tabs for Bad seed

Guitar tabs

Album - Cunning Stunts,ReLoad

Tuning - A chord diagramC#C# A chord diagramF#F# A chord diagramBB A chord diagramE MajorE A chord diagramG#G# A chord diagramC#C#


On the "Cunning Stunts" video this song is played
right after the song "So What." It is also on "ReLoad."

Intro - Listen to the song for timing
|-----------------------------------------------------------------|
|-----------------------------------------------------------------|
|-----------------------------------------------------------------|
|--2-0-----------------2-0-----------5--2-0-----------------------|
|-------2-0-----------------2-0------5-------2-0------------------|
|------------3-0-----------------3-0-3------------3-0--3p0--3p0---|


Riff one
|---------------------------------------------------------------------|
|---------------------------------------------------------------------|
|---------------------------------------------------------------------|
|--------------------------------------------------5-5-5-5-7--8-8-----|
|--2-2-2-2-2---------------2-2-2-2-2---------------5-5-5-5-7--8-8-----|
|--0-0-0-0-0-0h5p0-3h5-3p0-0-0-0-0-0-0h5p0-3h5-3p0-3-3-3-3-5--6-6-----|


Riff two
|---------------------------------|
|---------------------------------|
|---------------------------------|
|---------------------------------|
|-2-2-2-------2-2-2-------2-2-2---|
|-0-0-0-0h2h3-0-0-0-0h2h3-0-0-0---|

|-----------------------------------|
|-----------------------------------|
|-----------------------------------|
|-7-5-------------7-5-----------10--|
|------5-7-------------5-7------10--|
|-----------8-5-------------8-5--8--|

|-------------------|
|-------------------|
|-------------------|
|-7-7-7-7-7-7-7-10--|
|-7-7-7-7-7-7-7-10--|
|-5-5-5-5-5-5-5--8--|

|---------------------------------------------------------------------------|
|---------------------------------------------------------------------------|
|---------------------------------------------------------------------------|
|---------------------------------------------------------------------------|
|-5-5-5-5-5---------------5-5-5-5-5---------------5-5-5-5-7-----------------|
|-3-3-3-3-3-0h5p0-3h5-3p0-3-3-3-3-3-0h5p0-3h5-3p0-3-3-3-3-5-0h5p0-3h5-3p0---|

|-----------7~-------------12~-------------7~----|
|------------------------------------------8-----|
|------------------------------------------------|
|----------------5-5-5-5---------5-5-5-5---------|
|-5-5-5-5--------5-5-5-5---------5-5-5-5---------|
|-3-3-3-3--------3-3-3-3---------3-3-3-3---------|

|-----------------------------------|
|-----------------------------------|
|-----------------------------------|
|-2-2-2-2-5-5-5-5-7-7-7-7-8-8-8-8---|
|-2-2-2-2-5-5-5-5-7-7-7-7-8-8-8-8---|
|-0-0-0-0-3-3-3-3-5-5-5-5-6-6-6-6---|


Hope you enjoy!

Almost there ...

Sign in to get your own page with links to favourite songs and more. You are just one click away...

Login with Facebook Login with Google