Log in

One click and you are in

Login with Facebook Login with Google

Why sign up and log in

Guitar Tabs Explorer
Metallica chords for Astronomy

Guitar chords

Intro :
--------------
         |  |  |  |     |  |  |  |         |  |  |     |

||---||-----5--------|-----------5-9h10-|--5---------------|
||-4-||--5-----8--7--|--5-----7---------|-----8--5---------|
||---||--------------|-----7------------|-----------7--6---|
||---||--------------|------------------|----------------7-|
||-4-||--------------|------------------|------------------|
||---||--------------|------------------|------------------|

         |  |  |  |      |    |   |  |  (repeat 6 times)

      |---------------|--0--0-0---0--0--|
      |---------------|*-0--0-0---0--0-*|
      |---------------|--0--0-0---0--0--|
      |-----------7-5-|--2--2-2---2--2--|
      |--9--5--7------|*-2--2-2---2--2-*|
      |---------------|--0--0-0---0--0--|


Verse :
--------
       A chord diagramE minorEm                  A chord diagramD MajorD
   The clock ...
   A chord diagramC majorC      A chord diagramB minorBm       A chord diagramE minorEm
   A chord diagramE minorEm                      A chord diagramD MajorD
   A chord diagramC majorC      A chord diagramB minorBm       A chord diagramE minorEm

   A chord diagramC majorC                       A chord diagramG+G
   Like lesser ...
   A chord diagramC majorC                       A chord diagramBB
   A chord diagramE minorEm                      A chord diagramD MajorD
   A chord diagramC majorC      A chord diagramB minorBm       A chord diagramE minorEm

       A chord diagramE minorEm                  A chord diagramD MajorD
   Ah, come ...
   A chord diagramC majorC      A chord diagramB minorBm       A chord diagramE minorEm
   A chord diagramE minorEm                      A chord diagramD MajorD
   A chord diagramC majorC      A chord diagramB minorBm      A chord diagramE minorEm
   A chord diagramC majorC                       A chord diagramG+G
   A chord diagramC majorC                       A chord diagramBB
   A chord diagramE minorEm                      A chord diagramD MajorD
   A chord diagramC majorC       A chord diagramB minorBm       A chord diagramE minorEm


        |     |     |      |     |     |      |     |     |

||---||-7--5-----5-------|-7--5-----5-------|-7--5-----5-------|
||-3-||*------8-----8--7-|-------8-----8--5-|-------8-----8--7-|
||---||------------------|------------------|------------------|
||---||------------------|------------------|------------------|
||-4-||*-----------------|------------------|------------------|
||---||------------------|------------------|------------------|

       _________________ ____________________________
       |1.               |2.

        |     |     |            |     |     |     |

      |-7--5-----5-------||---||-7--5-----5----------|
      |-------8-----8--5*||-4-||-------8-----8--5--7-|
      |------------------||---||---------------------|
      |------------------||---||---------------------|
      |-----------------*||-4-||---------------------|
      |------------------||---||---------------------|


Chorus:
-------

        |   |   |     |   |   |     |   |   |     |   |   |

||---||-------------|-------------|-------------|-------------|            =

||-3-||-------------|-------------|-------------|-------------|
||---||-9-9-9---5-5-|-7-7-7---9-9-|-9-9-9---5-5-|-7-7-7---9-9-|
||---||-9-9-9---5-5-|-7-7-7---9-9-|-9-9-9---5-5-|-7-7-7---9-9-|
||-4-||-7-7-7---3-3-|-5-5-5---7-7-|-7-7-7---3-3-|-5-5-5---7-7-|
||---||-------------|-------------|-------------|-------------|
        Hey! ...

        |   |   |     |   |   |     |   |   |     |   |   |

      |-------------|-------------|-------------|-------------|
      |-------------|-------------|-------------|-------------|
      |-9-9-9---5-5-|-7-7-7---9-9-|-9-9-9---5-5-|-7-7-7---9-9-|
      |-9-9-9---5-5-|-7-7-7---9-9-|-9-9-9---5-5-|-7-7-7---9-9-|
      |-7-7-7---3-3-|-5-5-5---7-7-|-7-7-7---3-3-|-5-5-5---7-7-|
      |-------------|-------------|-------------|-------------|
        Four winds ...

        |   |   |     |   |   |     |   |   |     |   |   |

      |-------------|-------------|-------------|-------------|            =
      |-------------|-------------|-------------|-------------|
      |-9-9-9---5-5-|-7-7-7---9-9-|-9-9-9---5-5-|-7-7-7---9-9-|
      |-9-9-9---5-5-|-7-7-7---9-9-|-9-9-9---5-5-|-7-7-7---9-9-|
      |-7-7-7---3-3-|-5-5-5---7-7-|-7-7-7---3-3-|-5-5-5---7-7-|
      |-------------|-------------|-------------|-------------|
        Hey! ...

        |   |   |     |   |   |     |   |   |     |   |   |

      |-------------|-------------|-------------|-------------|            =
      |-------------|-------------|-------------|-------------|
      |-9-9-9---5-5-|-7-7-7---9-9-|-9-9-9---5-5-|-7-7-7---9-9-|
      |-9-9-9---5-5-|-7-7-7---9-9-|-9-9-9---5-5-|-7-7-7---9-9-|
      |-7-7-7---3-3-|-5-5-5---7-7-|-7-7-7---3-3-|-5-5-5---7-7-|
      |-------------|-------------|-------------|-------------|
        Ooh, in ...

        |   |   |     |   |   |     |   |   |     |   |   |

      |-------------|-------------|-------------|-------------|            =
      |*------------|-------------|-------------|------------*|
      |-9-9-9---5-5-|-7-7-7---9-9-|-9-9-9---5-5-|-7-7-7---9-9-|
      |-9-9-9---5-5-|-7-7-7---9-9-|-9-9-9---5-5-|-7-7-7---9-9-|
      |*7-7-7---3-3-|-5-5-5---7-7-|-7-7-7---3-3-|-5-5-5---7-7*|
      |-------------|-------------|-------------|-------------|
         Yes, the ...


Verse 2:
--------
       A chord diagramE minorEm                       A chord diagramD MajorD
   The clock ...
   A chord diagramC majorC      A chord diagramB minorBm        A chord diagramE minorEm
   A chord diagramE minorEm                           A chord diagramD MajorD
   A chord diagramC majorC      A chord diagramB minorBm        A chord diagramE minorEm
   A chord diagramC majorC                            A chord diagramG+G
   A chord diagramC majorC                            A chord diagramBB
   A chord diagramE minorEm                           A chord diagramD MajorD
   A chord diagramC majorC      A chord diagramB minorBm        A chord diagramE minorEm


        |     |     |      |     |     |      |     |     |

||---||-7--5-----5-------|-7--5-----5-------|-7--5-----5-------|           =
||-3-||*------8-----8--7-|-------8-----8--5-|-------8-----8--7-|
||---||------------------|------------------|------------------|
||---||------------------|------------------|------------------|
||-4-||*-----------------|------------------|------------------|
||---||------------------|------------------|------------------|

       _________________ ____________________________
       |1.               |2.

        |     |     |            |     |     |     |

      |-7--5-----5-------||---||-7--5-----5----------|
      |-------8-----8--5*||-4-||-------8-----8--5--7-|
      |------------------||---||---------------------|
      |------------------||---||---------------------|
      |-----------------*||-4-||---------------------|
      |------------------||---||---------------------|


Chorus:
-------

        |   |   |     |   |   |     |   |   |     |   |   |

||---||-------------|-------------|-------------|-------------|            =
||-3-||*------------|-------------|-------------|------------*|
||---||-9-9-9---5-5-|-7-7-7---9-9-|-9-9-9---5-5-|-7-7-7---9-9-|
||---||-9-9-9---5-5-|-7-7-7---9-9-|-9-9-9---5-5-|-7-7-7---9-9-|
||-4-||*7-7-7---3-3-|-5-5-5---7-7-|-7-7-7---3-3-|-5-5-5---7-7*|
||---||-------------|-------------|-------------|-------------|
        Hey! ...

        |   |   |     |   |   |     |   |   |     |   |   |

      |-------------|-------------|-------------|-------------|            =
      |-------------|-------------|-------------|-------------|
      |-9-9-9---5-5-|-7-7-7---9-9-|-9-9-9---5-5-|-7-7-7---9-9-|
      |-9-9-9---5-5-|-7-7-7---9-9-|-9-9-9---5-5-|-7-7-7---9-9-|
      |-7-7-7---3-3-|-5-5-5---7-7-|-7-7-7---3-3-|-5-5-5---7-7-|
      |-------------|-------------|-------------|-------------|
        Call me ...


        |   |   |     |   |   |     |   |   |     |   |   |

      |-------------|-------------|-------------|-------------|            =
      |*------------|-------------|-------------|------------*|
      |-9-9-9---5-5-|-7-7-7---9-9-|-9-9-9---5-5-|-7-7-7---9-9-|
      |-9-9-9---5-5-|-7-7-7---9-9-|-9-9-9---5-5-|-7-7-7---9-9-|
      |*7-7-7---3-3-|-5-5-5---7-7-|-7-7-7---3-3-|-5-5-5---7-7*|
      |-------------|-------------|-------------|-------------|
       Astronomy - a star...

Other versions of Astronomy

AstronomyTabs

Almost there ...

Sign in to get your own page with links to favourite songs and more. You are just one click away...

Login with Facebook Login with Google