And Justice For All by Metallica

And Justice For All tab by Metallica

Solo guitar tabs

Ok, this is just the first part of the guitar solo, but I don’t think that most tabs of this are accurate.

Main melody:
e|----------------------------------|
B|----------------------------------|
G|--5--10--13--12~--11--9--7/--5-5--|
D|----------------------------------|
A|----------------------------------|
E|----------------------------------|

Fill 1:
e|-------------------------|
B|-------------------------|
G|--5-7-9--9-7-5--4p2po~~~~|
D|-------------------------|
A|-------------------------|
E|-------------------------|

Then play main melody


Fill 2:
e|-----------------------------|
B|-----------------------------|
G|--0h5h7----------------------|
D|--------0h5h7----------------|
A|---------------0h5h7---------|
E|----------------------0h2h3--|

Then we play this variation on the main melody, ending with a fast trill:
e|----------------------------------------------|
B|-------------------------8~--10--12-10-9-12-13|
G|--5--10--13~--12--10--10----------------------|
D|----------------------------------------------|
A|----------------------------------------------|
E|----------------------------------------------|
Don’t play those B string notes fast.

e|----------------------------------------------|
B|----------------------------------------------|
G|--14--16-----20p18p1720p18p1720p18p1720p18p17-|
D|----------------------------------------------|
A|----------------------------------------------|
E|----------------------------------------------|
Although the trill at the end is fast, it is not wicked fast,
listen to the song for correct speed.

Fill 3:
e|-------------------------------------------------------------|
B|-------------------------------------------------------------|
G|--0h5h7--------------0h5h7-------------0h5h7-----------------|
D|--------0h5h7--------------0h5h7-------------0h5h7---------|
A|---------------0h2h3-------------0h2h3----------------0h2h3--|
E|-------------------------------------------------------------|

Then after that fill the solo goes into typical double stop Hammett.

The only reason I dislike the whole solo is because after this part
he abandons melody and just shows off in a rather annoying way.

Other versions of And Justice For All

Alternative guitar chords and tabs for And Justice For All by Metallica

Find guitar tabs and chords

A B C D E F G H I J K L M N O P Q R S T U V W X Y Z #