Log in

One click and you are in

Login with Facebook Login with Google

Why sign up and log in

Guitar Tabs Explorer
Metallica bass tabs for All within my hands

Bass tabs with lyrics

Album: St. Anger

Tabbed by Kristof Smits

Drop C Tuning
Riff 1 (Guitar)


Riff 2:
              (x2)
F------------------------------
C------------------------------
G------------------------------
C--7-7--0-0--6-6--0-0--5-4-3---


Riff 3:
               (x4)
F--------------------------------
C--------------------------------
G--------------------------------
C--7-7--0-0--6-6--0-0--(0-0-0)---

Fill 1 (Guitar 2, over Riff 3)


Riff 3


Riff 4:
F-------------------------------------
C-------------------------------------
G-------------------------------------
C--3----3-3-3-3--7-7--0-0--6-6--0-0---

Riff 5 (listen to bass drum for timing):
F----------------------------------
C----------------------------------
G----------------------------------
C--0---0-0--0-0-0--0-0--0-0-0--0---


Riff 6 (hit softly):
F---------------------------------------------------------------------
C---------------------------------------------------------------------
G---------------------------------------------------------------------
C--3-3-3-3-3-3-3-3--2-2-2-2-2-2-2-2--5-5-5-5-5-5-5--2-2-2-2-2-2-2-2---


Riff 7 (play 2 times):
F---------------------------------------------------------
C---------------------------------------------------------
G---------------------------------------------------------
C--0--3--3--3--3--3--3--3--3--2--2--2--2--2--2--2--2--2---

(continued)
F-------------------------------------------------------
C-------------------------------------------------------
G-------------------------------------------------------
C--5--5--5--5--5--5--5--5--2--2--2--2---3-2-3---3-2-0---


Riff 8:
                  (x6) Fill 6th time
F--------------------------------------|------------
C--------------------------------------|------------
G--------------------------------------|------------
C--5h6h7-0--5h6h7-0--3h4h5-0--0-0-0-0--|--1-1-1-1---


Riff 9:
                  (x4)
F--------------------------------------
C--------------------------------------
G--------------------------------------
C--5-6-7--0--5-7--3--5^--3--5--5^--3---


Riff 2


Riff 9 x2


Riff 10:
F-----------------------------------------------------------
C-----------------------------------------------------------
G-----------------------------------------------------------
C--0--0--0---0--0---0--0---0--0--0---0--0---0--0--0--0--0---

Riff 3


Riff 5


Riff 6


Riff 7


Riff 8


Riff 9


Riff 2


Riff 9 x2


Riff 10


Riff 11 (bass comes in 3rd time play several times, then go to Riff 12):
F------------------------------------
C------------------------------------
G------------------------------------
C--5h7--0-0-0-0-0-0--3-3-5-5--5^p3---


Riff 12 (Fill in, listen to drum):
              (x4)
F-------------------------------
C-------------------------------
G-------------------------------
C--5--5^-\3--5h7--0-0-0-0-0-0---


Riff 8
"I'll die if I let go..."


Riff 13:
             (x4)
F-----------------------------
C-----------------------------
G-----------------------------
C--0h3--5h7p5-3--5h7--0-0-0---

Riff 13
"I will only let you breathe..."

Fill 2:
F---------------------------------------
C---------------------------------------
G---------------------------------------
C--7-7-7-7--5-5-5-5--3-3-3-3--2-2-2-2---


Riff 8


Riff 9


Riff 2


Riff 9 x2


Riff 10

Riff 3


Riff 14 (strum, slow down at the end):
F-----------------------------
C-----------------------------
G-----------------------------
C--7---6---3------7---6---3---
"Kill kill kill kill..."

Almost there ...

Sign in to get your own page with links to favourite songs and more. You are just one click away...

Login with Facebook Login with Google